Log in

One click and you are in

Login with Facebook Login with Google

Why sign up and log in

Guitar Tabs Explorer
Slowdive bass tabs for Catch the breeze

Bass tabs

-------------------------------------------------------------------------------
               CATCH THE BREEZE - Slowdive
-------------------------------------------------------------------------------
Tabbed by: cesare_moon
E-mail:

Album: Just For A Day
Year: 1991
Tuning: EADG


Intro - 00.00 - 00.11

G|---------------------------------------------------------------------------|
D|---------------------------------------------------------------------------|
A|-4-4-4-4-4-4-4-4-2-2-2-2-2-2-2-2-------------------------------------------|
E|---------------------------------5-5-5-5-5-5-5-5-5-5-5-5-5-5-5-5-----------|


Verse - 00.11 - 00.42

G|---------------------------------------------------------------------------|
D|---------------------------------------------------------------------------|
A|-4-4-4-4-4-4-4-4-2-2-2-2-2-2-2-2-------------------------------------------|
E|---------------------------------5-5-5-5-5-5-5-5-5-5-5-5-5-5-5-5-----------| x3


Chorus - 00.42 - 01.24

G|---------------------------------------------------------------------------|
D|---------------------------------------------------------------------------|
A|-5-5-5-5-5-5-5-5-5-5-5-5-5-5-5-5-3-3-3-3-3-3-3-3-3-3-3-3-3-3-3-3-----------|
E|---------------------------------------------------------------------------| x4

Intro - 01.24 - 01.34

G|---------------------------------------------------------------------------|
D|---------------------------------------------------------------------------|
A|-4-4-4-4-4-4-4-4-2-2-2-2-2-2-2-2-------------------------------------------|
E|---------------------------------5-5-5-5-5-5-5-5-5-5-5-5-5-5-5-5-----------|


Verse - 01.34 - 02.06

G|---------------------------------------------------------------------------|
D|---------------------------------------------------------------------------|
A|-4-4-4-4-4-4-4-4-2-2-2-2-2-2-2-2-------------------------------------------|
E|---------------------------------5-5-5-5-5-5-5-5-5-5-5-5-5-5-5-5-----------| x3


Chorus - 02.06 - 02.48

G|---------------------------------------------------------------------------|
D|---------------------------------------------------------------------------|
A|-5-5-5-5-5-5-5-5-5-5-5-5-5-5-5-5-3-3-3-3-3-3-3-3-3-3-3-3-3-3-3-3-----------|
E|---------------------------------------------------------------------------| x4


Outro - 02.48 - End

G|---------------------------------------------------------------------------|
D|---------------------------------------------------------------------------|
A|-7-7-7-7-7-7-7-7-7-7-7-7-7-7-7-7-------------------------------------------|
E|---------------------------------4-4-4-4-4-4-4-4-4-4-4-4-4-4-4-4-----------| x8

End on...

G|---------|
D|---------|
A|-7~------|
E|---------|

Thank you! :)

| / slide up
| \ slide down
| h hammer-on
| p pull-off
| ~ vibrato
| + harmonic
| x Mute note

Almost there ...

Sign in to get your own page with links to favourite songs and more. You are just one click away...

Login with Facebook Login with Google