Log in

One click and you are in

Login with Facebook Login with Google

Why sign up and log in

Guitar Tabs Explorer
Slowdive bass tabs for Alison

Bass tabs

Tuning: Standard (E A D G)


Intro:

G|------------------------------------------------------------------|
D|-7-7-7-7-7-7-7-7-7-7-7-7-7-7-7-7/9-9-9-9-9-9-9-9-9-9-9-9-9-9-9-9--|
A|------------------------------------------------------------------|
E|------------------------------------------------------------------|

G|------------------------------------------------------------------|
D|-7-7-7-7-7-7-7-7-7-7-7-7-7-7-7-7/9-9-9-9-9-9-9-9-9-9-9-9-9-9-9-9--|
A|------------------------------------------------------------------|
E|------------------------------------------------------------------|
Verse 1:

G|------------------------------------------------------------------|
D|-7-7-7-7-7-7-7-7-7-7-7-7-7-7-7-7/9-9-9-9-9-9-9-9-9-9-9-9-9-9-9-9--|
A|------------------------------------------------------------------|
E|------------------------------------------------------------------|

G|------------------------------------------------------------------|
D|-7-7-7-7-7-7-7-7-7-7-7-7-7-7-7-7/9-9-9-9-9-9-9-9-9-9-9-9-9-9-9-9--|
A|------------------------------------------------------------------|
E|------------------------------------------------------------------|

G|------------------------------------------------------------------|
D|-7-7-7-7-7-7-7-7-7-7-7-7-7-7-7-7/9-9-9-9-9-9-9-9-9-9-9-9-9-9-9-9--|
A|------------------------------------------------------------------|
E|------------------------------------------------------------------|

G|------------------------------------------------------------------|
D|-7-7-7-7-7-7-7-7-7-7-7-7-7-7-7-7/9-9-9-9-9-9-9-9-9-9-9-9-9-9-9-9--|
A|------------------------------------------------------------------|
E|------------------------------------------------------------------|

Chorus:

G|-13-13-13-13-13-13-13-13-13-----------------------------------------------------------------------|
D|--------------------------------------------------------------------------------------------------|
A|----------------------------14-14-14-14-14-14-14\12-12-12-12-12-12-12-12-12-12-12-12-12-12-12-12--|
E|--------------------------------------------------------------------------------------------------|

G|-13-13-13-13-13-13-13-13-13-----------------------------------------------------------------------|
D|--------------------------------------------------------------------------------------------------|
A|----------------------------14-14-14-14-14-14-14\12-12-12-12-12-12-12-12-12-12-12-12-12-12-12-12--|
E|--------------------------------------------------------------------------------------------------|

G|-13-13-13-13-13-13-13-13-13-----------------------------------------------------------------------|
D|--------------------------------------------------------------------------------------------------|
A|----------------------------14-14-14-14-14-14-14\12-12-12-12-12-12-12-12-12-12-12-12-12-12-12-12--|
E|--------------------------------------------------------------------------------------------------|

G|--------------------------------------------------------------------------------------------------|
D|-12-12-12-12-12-12-12-12-12-12-12-12-12-12-12-12-14-14-14-14-14-14-14-14-14-----------------------|
A|----------------------------------------------------------------------------14-14-14-14-14-14-14--|
E|--------------------------------------------------------------------------------------------------|

G|--------------------------------------------------------------------------------------------------|
D|--------------------------------------------------------------------------------------------------|
A|-12-12-12-12-12-12-12-12-12-12-12-12-12-12-12-12--7~----------------------------------------------|
E|--------------------------------------------------------------------------------------------------|


Verse 2:

G|------------------------------------------------------------------|
D|-7-7-7-7-7-7-7-7-7-7-7-7-7-7-7-7/9-9-9-9-9-9-9-9-9-9-9-9-9-9-9-9--|
A|------------------------------------------------------------------|
E|------------------------------------------------------------------|

G|------------------------------------------------------------------|
D|-7-7-7-7-7-7-7-7-7-7-7-7-7-7-7-7/9-9-9-9-9-9-9-9-9-9-9-9-9-9-9-9--|
A|------------------------------------------------------------------|
E|------------------------------------------------------------------|

G|------------------------------------------------------------------|
D|-7-7-7-7-7-7-7-7-7-7-7-7-7-7-7-7/9-9-9-9-9-9-9-9-9-9-9-9-9-9-9-9--|
A|------------------------------------------------------------------|
E|------------------------------------------------------------------|

G|------------------------------------------------------------------|
D|-7-7-7-7-7-7-7-7-7-7-7-7-7-7-7-7/9-9-9-9-9-9-9-9-9-9-9-9-9-9-9-9--|
A|------------------------------------------------------------------|
E|------------------------------------------------------------------|


Chorus:

G|-13-13-13-13-13-13-13-13-13-----------------------------------------------------------------------|
D|--------------------------------------------------------------------------------------------------|
A|----------------------------14-14-14-14-14-14-14\12-12-12-12-12-12-12-12-12-12-12-12-12-12-12-12--|
E|--------------------------------------------------------------------------------------------------|

G|-13-13-13-13-13-13-13-13-13-----------------------------------------------------------------------|
D|--------------------------------------------------------------------------------------------------|
A|----------------------------14-14-14-14-14-14-14\12-12-12-12-12-12-12-12-12-12-12-12-12-12-12-12--|
E|--------------------------------------------------------------------------------------------------|

G|-13-13-13-13-13-13-13-13-13-----------------------------------------------------------------------|
D|--------------------------------------------------------------------------------------------------|
A|----------------------------14-14-14-14-14-14-14\12-12-12-12-12-12-12-12-12-12-12-12-12-12-12-12--|
E|--------------------------------------------------------------------------------------------------|

G|--------------------------------------------------------------------------------------------------|
D|-12-12-12-12-12-12-12-12-12-12-12-12-12-12-12-12-14-14-14-14-14-14-14-14-14-----------------------|
A|----------------------------------------------------------------------------14-14-14-14-14-14-14--|
E|--------------------------------------------------------------------------------------------------|

G|--------------------------------------------------|
D|--------------------------------------------------|
A|-12-12-12-12-12-12-12-12-12-12-12-12-12-12-12-12--|
E|--------------------------------------------------|


Outro:

G|-13-13-13-13-13-13-13-13-13-----------------------------------------------------------------------|
D|--------------------------------------------------------------------------------------------------|
A|----------------------------14-14-14-14-14-14-14\12-12-12-12-12-12-12-12-12-12-12-12-12-12-12-12--|
E|--------------------------------------------------------------------------------------------------|

G|-13-13-13-13-13-13-13-13-13-----------------------------------------------------------------------|
D|--------------------------------------------------------------------------------------------------|
A|----------------------------14-14-14-14-14-14-14\12-12-12-12-12-12-12-12-12-12-12-12-12-12-12-12--|
E|--------------------------------------------------------------------------------------------------|

G|-13-13-13-13-13-13-13-13-13-----------------------------------------------------------------------|
D|--------------------------------------------------------------------------------------------------|
A|----------------------------14-14-14-14-14-14-14\12-12-12-12-12-12-12-12-12-12-12-12-12-12-12-12--|
E|--------------------------------------------------------------------------------------------------|

G|-13-13-13-13-13-13-13-13-13-----------------------------------------------------------------------|
D|--------------------------------------------------------------------------------------------------|
A|----------------------------14-14-14-14-14-14-14\12-12-12-12-12-12-12-12-12-12-12-12-12-12-12-12--|
E|--------------------------------------------------------------------------------------------------|

(Fade out)


************************************

| / Slide up
| \ Slide down
| ~ Vibrato

************************************

Almost there ...

Sign in to get your own page with links to favourite songs and more. You are just one click away...

Login with Facebook Login with Google