Log in

One click and you are in

Login with Facebook Login with Google

Why sign up and log in

Guitar Tabs Explorer
Slothrust guitar tabs for Double down

Guitar tabs with lyrics

Intro:

(Palm Mute)

e|----------------|-----------------|----------------|----------------|
B|----------------|------------11br-|----------------|----------------|
G|----------------|------------10br-|----------------|----------------|
D|------3-------3-|------3-----8br--|------3-------3-|------3----3----|
A|3--6-------6----|---6-------------|3--6-------6----|---6----------6-|
E|--------6-------|1-------1--------|--------4-------|1-------1-------|
                               |open|

Verse:

(Palm Mute)

I do what I want...                  I'm walking away...I chill by myself
e|----------------|-----------------|----------------|----------------|
B|----------------|------------11br-|----------------|----------------|
G|----------------|------------10br-|----------------|----------------|
D|------3-------3-|------3-----8br--|------3-------3-|------3----3----|
A|3--6-------6----|---6-------------|3--6-------6----|---6----------6-|
E|--------6-------|1-------1--------|--------4-------|1-------1-------|
                               |open|


Pre-Chorus:

You know I'm flyin'...                     ...'Cause I can see everything
e|----------------|----------------|----------------|--------------------------------|
B|----------------|----------------|----------------|--------------------------------|
G|----------------|----------------|----------------|12-12-12-10-10-10-8-----10-8----|
D|----------------|----------------|----------------|12-12-10-10-10-10-8----------10\|
A|----------------|----------------|----------------|10-10-10-8--8--8--6-------------|
E|----------------|----------------|----------------|--------------------------------|
                                    (Open, Triplet feel)---------|--------------|(straight)


Chorus:

(Palm Mute)

e|----------------|-----------------|----------------|----------------|
B|----------------|------------11br-|----------------|----------------|
G|----------------|------------10br-|----------------|----------------|
D|------3-------3-|------3-----8br--|------3-------3-|------3----3----|
A|3--6-------6----|---6-------------|3--6-------6----|---6----------6-|
E|--------4-------|1-------1--------|--------4-------|1-------1-------|
                               |open|


Verse:

(Palm Mute)

Oh don't you dare                  'Cause I don't care
e|----------------|----------------|----------------|----------------|
B|----------------|-----------11br-|----------------|-----------11br-|
G|5---------------|-----------10br-|5---------------|-----------10br-|
D|5-------6-------|3-----------8br-|5-------6-------|3-----------8br-|
A|3-------6-------|3---------------|3-------6-------|3---------------|
E|--------4-------|1---------------|--------4-------|1---------------|
                              |open|

And every time....                    Dismantle you...
e|----------------|-----------------|----------------|----------------|
B|----------------|------------11br-|----------------|----------------|
G|----------------|------------10br-|----------------|----------------|
D|------3-------3-|------3-----8br--|------3-------3-|------3----3----|
A|3--6-------6----|---6-------------|3--6-------6----|---6----------6-|
E|--------4-------|1-------1--------|--------4-------|1-------1-------|
                               |open|


Pre-Chorus:

You know I'm flyin'...                     ...'Cause I can see everything
e|----------------|----------------|----------------|--------------------------------|
B|----------------|----------------|----------------|--------------------------------|
G|----------------|----------------|----------------|12-12-12-10-10-10-8-----10-8----|
D|----------------|----------------|----------------|12-12-10-10-10-10-8----------10\|
A|----------------|----------------|----------------|10-10-10-8--8--8--6-------------|
E|----------------|----------------|----------------|--------------------------------|
                                         (Open, Triplet feel)---------|--------------(straight)


Chorus:

(Palm Mute)

e|----------------|-----------------|----------------|----------------|
B|----------------|------------11br-|----------------|----------------|
G|----------------|------------10br-|----------------|----------------|
D|------3-------3-|------3-----8br--|------3-------3-|------3----3----|
A|3--6-------6----|---6-------------|3--6-------6----|---6----------6-|
E|--------4-------|1-------1--------|--------4-------|1-------1-------|
                               |open|


Bridge:

(Open)

Oooooo-oo-ooooo                          You ain't ever gonna get me down
e|8------8----8--8-|4-----4----4-/6-|6-----6----6-6-|6-6-6-6-6-6-6-6-|
B|8------8----8--8-|4-----4----4-/6-|6-----6----6-6-|6-6-6-6-6-6-6-6-|
G|8------8----8--8-|5-----5----5-/7-|7-----7----7-7-|7-7-7-7-7-7-7-7-|
D|10-----10---10-10|6-----6----6-/8-|8-----8----8-8-|8-8-8-8-8-8-8-8-|
A|10-----10---10-10|6-----6----6-/8-|8-----8----8-8-|8-8-8-8-8-8-8-8-|
E|8------8----8-8--|4-----4----4-/6-|6-----6----6-6-|6-6-6-6-6-6-6-6-|

Oooooo-oo-ooooo                          You ain't ever gonna get me...
e|8------8----8--8-|4-----4----4-/6-|6-----6----6-6-|6-6-6-6-6-6-6-6-|
B|8------8----8--8-|4-----4----4-/6-|6-----6----6-6-|6-6-6-6-6-6-6-6-|
G|8------8----8--8-|5-----5----5-/7-|7-----7----7-7-|7-7-7-7-7-7-7-7-|
D|10-----10---10-10|6-----6----6-/8-|8-----8----8-8-|8-8-8-8-8-8-8-8-|
A|10-----10---10-10|6-----6----6-/8-|8-----8----8-8-|8-8-8-8-8-8-8-8-|
E|8------8----8-8--|4-----4----4-/6-|6-----6----6-6-|6-6-6-6-6-6-6-6-|


Solo:

e|------------|-------------------------------|--------------------|
B|8-----------|-------------------------------|--------------------|
G|10b(12)-----|---------10b(12)r10--p8--------|-----8N\------------|
D|------------|-------------------------10---8|10------------------|
A|------------|-------------------------------|--------------------|
E|------------|-------------------------------|--------------------|

e|-----------------|------------------------|----------------|--------------------|
B|-----------------|------------------------|----------------|--------------------|
G|-----------------|----8--10--10b(12)------|----------------|--------10b(12)-----|
D|/10~----8-10~---8|10----------------------|----------------|--------------------|
A|-----------------|------------------------|----------------|--------------------|
E|-----------------|------------------------|----------------|--------------------|

e|--------------------|-------------------|--------------|--------------|
B|--------------------|-------------------|--------------|--------------|
G|----10--10-8-10b(12)|r10-p8------10--8--|10b(12)-10-8--|---10b(12~)---|
D|--------------------|-------10----------|--------------|10------------|
A|--------------------|-------------------|--------------|--------------|
E|--------------------|-------------------|--------------|--------------|


Pre-Chorus:

You know I'm flyin'...                     ...'Cause I can see everything
e|----------------|----------------|----------------|--------------------------------|
B|----------------|----------------|----------------|--------------------------------|
G|----------------|----------------|----------------|12-12-12-10-10-10-8-----10-8----|
D|----------------|----------------|----------------|12-12-10-10-10-10-8----------10\|
A|----------------|----------------|----------------|10-10-10-8--8--8--6-------------|
E|----------------|----------------|----------------|--------------------------------|
                                    (Open, Triplet feel)---------|--------------|(straight)


Chorus:

(Palm Mute)

e|----------------|-----------------|----------------|----------------|
B|----------------|------------11br-|----------------|----------------|
G|----------------|------------10br-|----------------|----------------|
D|------3-------3-|------3-----8br--|------3-------3-|------3----3----|
A|3--6-------6----|---6-------------|3--6-------6----|---6----------6-|
E|--------4-------|1-------1--------|--------4-------|1-------1-------|
                               |open|


Outro:

(Open)

Oooooo-oo-ooooo                          You ain't ever gonna get me down
e|8------8----8--8-|4-----4----4-/6-|6-----6----6-6-|6-6-6-6-6-6-6-6-|
B|8------8----8--8-|4-----4----4-/6-|6-----6----6-6-|6-6-6-6-6-6-6-6-|
G|8------8----8--8-|5-----5----5-/7-|7-----7----7-7-|7-7-7-7-7-7-7-7-|
D|10-----10---10-10|6-----6----6-/8-|8-----8----8-8-|8-8-8-8-8-8-8-8-|
A|10-----10---10-10|6-----6----6-/8-|8-----8----8-8-|8-8-8-8-8-8-8-8-|
E|8------8----8-8--|4-----4----4-/6-|6-----6----6-6-|6-6-6-6-6-6-6-6-|

Oooooo-oo-ooooo                          You ain't ever gonna get me
e|8------8----8--8-|4-----4----4-/6-|6-----6----6-6-|6-6-6-6-6-6-6-6-|
B|8------8----8--8-|4-----4----4-/6-|6-----6----6-6-|6-6-6-6-6-6-6-6-|
G|8------8----8--8-|5-----5----5-/7-|7-----7----7-7-|7-7-7-7-7-7-7-7-|
D|10-----10---10-10|6-----6----6-/8-|8-----8----8-8-|8-8-8-8-8-8-8-8-|
A|10-----10---10-10|6-----6----6-/8-|8-----8----8-8-|8-8-8-8-8-8-8-8-|
E|8------8----8-8--|4-----4----4-/6-|6-----6----6-6-|6-6-6-6-6-6-6-6-|

down....                                 You ain't ever gonna get me
e|8------8----8--8-|4-----4----4-/6-|6-----6----6-6-|6-6-6-6-6-6-6-6-|
B|8------8----8--8-|4-----4----4-/6-|6-----6----6-6-|6-6-6-6-6-6-6-6-|
G|8------8----8--8-|5-----5----5-/7-|7-----7----7-7-|7-7-7-7-7-7-7-7-|
D|10-----10---10-10|6-----6----6-/8-|8-----8----8-8-|8-8-8-8-8-8-8-8-|
A|10-----10---10-10|6-----6----6-/8-|8-----8----8-8-|8-8-8-8-8-8-8-8-|
E|8------8----8-8--|4-----4----4-/6-|6-----6----6-6-|6-6-6-6-6-6-6-6-|

down....    You ain't ever gonna get me down
e|4-4-4-4-4-4-4-4-|6-6-6-6-6-------|8--8\---------|
B|4-4-4-4-4-4-4-4-|6-6-6-6-6-------|8--8\---------|
G|5-5-5-5-5-5-5-5-|7-7-7-7-7-------|8--8\---------|
D|6-6-6-6-6-6-6-6-|8-8-8-8-8-9-9-9-|10-10\--------|
A|6-6-6-6-6-6-6-6-|8-8-8-8-8-9-9-9-|10-10\--------|
E|4-4-4-4-4-4-4-4-|6-6-6-6-6-7-7-7-|8--8\---------|

↓ Add and view comments below ↓

What do you think about this song and these tabs?

Add your comments, questions, rant or a thumbs up below.

Almost there ...

Sign in to get your own page with links to favourite songs and more. You are just one click away...

Login with Facebook Login with Google