Log in

One click and you are in

Login with Facebook Login with Google

Why sign up and log in

Guitar Tabs Explorer
Sleaford Mods bass tabs for The corgi

Bass tabs

Tuning: Standard (E A D G)

Just 4 bars repeated throughout the whole song:


Intro:
G|--------------------------------|--------------------------------|
D|--------------------------------|--------------------------------|
A|7-7-7-6---6-6-6-6-6-6-6-6-6-6-6-|--------------------------------|
E|--------------------------------|0-7-7-7-7-7-7-0-7-0-0-0-0-0-0-0-|
 D D D S  D D D D D D D D D D D D D D D D D D D D D D D D D D D

G|--------------------------------|--------------------------------|
D|--------------------------------|--------------------------------|
A|7-7-7-6---6-6-6-6-6-6-6-6-6-6-6-|--------------------------------|
E|--------------------------------|7-7-7-7-6-6-6-6-0-0-0-0-0-0-0-0-| repeat these 4 bars x2
 D D D S  D D D D D D D D D D D D D D D D D D D D D D D D D D D
Chorus:
G|--------------------------------|--------------------------------|
D|--------------------------------|--------------------------------|
A|7-7-7-6---6-6-6-6-6-6-6-6-6-6-6-|--------------------------------|
E|--------------------------------|0-7-7-7-7-7-7-0-7-0-0-0-0-0-0-0-|
 D D D S  D D D D D D D D D D D D D D D D D D D D D D D D D D D

G|--------------------------------|--------------------------------|
D|--------------------------------|--------------------------------|
A|7-7-7-6---6-6-6-6-6-6-6-6-6-6-6-|--------------------------------|
E|--------------------------------|7-7-7-7-6-6-6-6-0-0-0-0-0-0-0-0-| repeat these 4 bars x2
 D D D S  D D D D D D D D D D D D D D D D D D D D D D D D D D D


Verse 1:
G|--------------------------------|--------------------------------|
D|--------------------------------|--------------------------------|
A|7-7-7-6---6-6-6-6-6-6-6-6-6-6-6-|--------------------------------|
E|--------------------------------|0-7-7-7-7-7-7-0-7-0-0-0-0-0-0-0-|
 D D D S  D D D D D D D D D D D D D D D D D D D D D D D D D D D

G|--------------------------------|--------------------------------|
D|--------------------------------|--------------------------------|
A|7-7-7-6---6-6-6-6-6-6-6-6-6-6-6-|--------------------------------|
E|--------------------------------|7-7-7-7-6-6-6-6-0-0-0-0-0-0-0-0-| repeat these 4 bars x2
 D D D S  D D D D D D D D D D D D D D D D D D D D D D D D D D D

Chorus:
G|--------------------------------|--------------------------------|
D|--------------------------------|--------------------------------|
A|7-7-7-6---6-6-6-6-6-6-6-6-6-6-6-|--------------------------------|
E|--------------------------------|0-7-7-7-7-7-7-0-7-0-0-0-0-0-0-0-|
 D D D S  D D D D D D D D D D D D D D D D D D D D D D D D D D D

G|--------------------------------|--------------------------------|
D|--------------------------------|--------------------------------|
A|7-7-7-6---6-6-6-6-6-6-6-6-6-6-6-|--------------------------------|
E|--------------------------------|7-7-7-7-6-6-6-6-0-0-0-0-0-0-0-0-| repeat these 4 bars x2
 D D D S  D D D D D D D D D D D D D D D D D D D D D D D D D D D


Verse 2:
G|--------------------------------|--------------------------------|
D|--------------------------------|--------------------------------|
A|7-7-7-6---6-6-6-6-6-6-6-6-6-6-6-|--------------------------------|
E|--------------------------------|0-7-7-7-7-7-7-0-7-0-0-0-0-0-0-0-|
 D D D S  D D D D D D D D D D D D D D D D D D D D D D D D D D D

G|--------------------------------|--------------------------------|
D|--------------------------------|--------------------------------|
A|7-7-7-6---6-6-6-6-6-6-6-6-6-6-6-|--------------------------------|
E|--------------------------------|7-7-7-7-6-6-6-6-0-0-0-0-0-0-0-0-| repeat these 4 bars x2
 D D D S  D D D D D D D D D D D D D D D D D D D D D D D D D D D


Chorus:
G|--------------------------------|--------------------------------|
D|--------------------------------|--------------------------------|
A|7-7-7-6---6-6-6-6-6-6-6-6-6-6-6-|--------------------------------|
E|--------------------------------|0-7-7-7-7-7-7-0-7-0-0-0-0-0-0-0-|
 D D D S  D D D D D D D D D D D D D D D D D D D D D D D D D D D

G|--------------------------------|--------------------------------|
D|--------------------------------|--------------------------------|
A|7-7-7-6---6-6-6-6-6-6-6-6-6-6-6-|--------------------------------|
E|--------------------------------|7-7-7-7-6-6-6-6-0-0-0-0-0-0-0-0-| repeat these 4 bars x2
 D D D S  D D D D D D D D D D D D D D D D D D D D D D D D D D D


Bridge: instrumental:
G|--------------------------------|--------------------------------|
D|--------------------------------|--------------------------------|
A|7-7-7-6---6-6-6-6-6-6-6-6-6-6-6-|--------------------------------|
E|--------------------------------|0-7-7-7-7-7-7-0-7-0-0-0-0-0-0-0-|
 D D D S  D D D D D D D D D D D D D D D D D D D D D D D D D D D

G|--------------------------------|--------------------------------|
D|--------------------------------|--------------------------------|
A|7-7-7-6---6-6-6-6-6-6-6-6-6-6-6-|--------------------------------|
E|--------------------------------|7-7-7-7-6-6-6-6-0-0-0-0-0-0-0-0-|
 D D D S  D D D D D D D D D D D D D D D D D D D D D D D D D D D


Verse 3:
G|--------------------------------|--------------------------------|
D|--------------------------------|--------------------------------|
A|7-7-7-6---6-6-6-6-6-6-6-6-6-6-6-|--------------------------------|
E|--------------------------------|0-7-7-7-7-7-7-0-7-0-0-0-0-0-0-0-|
 D D D S  D D D D D D D D D D D D D D D D D D D D D D D D D D D

G|--------------------------------|--------------------------------|
D|--------------------------------|--------------------------------|
A|7-7-7-6---6-6-6-6-6-6-6-6-6-6-6-|--------------------------------|
E|--------------------------------|7-7-7-7-6-6-6-6-0-0-0-0-0-0-0-0-| repeat these 4 bars x4
 D D D S  D D D D D D D D D D D D D D D D D D D D D D D D D D D

dog's bark:
G|--------------------------------|--------------------------------|
D|--------------------------------|--------------------------------|
A|7-7-7-6---6-6-6-6-6-6-6-6-6-6-6-|--------------------------------|
E|--------------------------------|0-7-7-7-7-7-7-0-7-0-0-0-0-0-0-0-|
 D D D S  D D D D D D D D D D D D D D D D D D D D D D D D D D D

G|--------------------------------|--------------------------------|
D|--------------------------------|--------------------------------|
A|7-7-7-6---6-6-6-6-6-6-6-6-6-6-6-|--------------------------------|
E|--------------------------------|7-7-7-7-6-6-6-6-0-0-0-0-0-0-0-0-| repeat these 4 bars x2
 D D D S  D D D D D D D D D D D D D D D D D D D D D D D D D D D


Chorus/Outro:
G|--------------------------------|--------------------------------|
D|--------------------------------|--------------------------------|
A|7-7-7-6---6-6-6-6-6-6-6-6-6-6-6-|--------------------------------|
E|--------------------------------|0-7-7-7-7-7-7-0-7-0-0-0-0-0-0-0-|
 D D D S  D D D D D D D D D D D D D D D D D D D D D D D D D D D

G|--------------------------------|--------------------------------|
D|--------------------------------|--------------------------------|
A|7-7-7-6---6-6-6-6-6-6-6-6-6-6-6-|--------------------------------|
E|--------------------------------|7-7-7-7-6-6-6-6-0-0-0-0-0-0-0-0-| repeat these 4 bars x2
 D D D S  D D D D D D D D D D D D D D D D D D D D D D D D D D D


**************************


Note lenghts:

| D Demisemiquaver
| S Semiquaver

**************************

Almost there ...

Sign in to get your own page with links to favourite songs and more. You are just one click away...

Login with Facebook Login with Google