Log in

One click and you are in

Login with Facebook Login with Google

Why sign up and log in

Guitar Tabs Explorer
Sleaford Mods bass tabs for Shortcummings

Bass tabs

Tuning: Standard (E A D G)

This song uses alot of distortion and Treble, and I have only included the main bassline


Intro:

G|---------------------------------------------------------------------------|
D|---------------------------------------------------------------------------|
A|---------------------------------------------------------------------------|
E|0----0-3-----0-3-3----4----4-4-4----7-7-7-7--------------------------------|

G|---------------------------------------------------------------------------|
D|---------------------------------------------------------------------------|
A|---------------------------------------------------------------------------|
E|0----0-3-----0-3-3----4----4-4-4----7-7-7-7--------------------------------|


Verse 1:

G|---------------------------------------------------------------------------|
D|---------------------------------------------------------------------------|
A|---------------------------------------------------------------------------|
E|0----0-3-----0-3-3----4----4-4-4----7-7-7-7--------------------------------|

G|---------------------------------------------------------------------------|
D|---------------------------------------------------------------------------|
A|---------------------------------------------------------------------------|
E|0----0-3-----0-3-3----4----4-4-4----7-7-7-7--------------------------------|



Chorus:

G|---------------------------------------------------------------------------|
D|---------------------------------------------------------------------------|
A|---------------------------------------------------------------------------|
E|0----0-3-----0-3-3----4----4-4-4----7-7-7-7--------------------------------|

G|---------------------------------------------------------------------------|
D|---------------------------------------------------------------------------|
A|---------------------------------------------------------------------------|
E|0----0-3-----0-3-3----4----4-4-4----7-7-7-7--------------------------------|



Verse 2:

G|---------------------------------------------------------------------------|
D|---------------------------------------------------------------------------|
A|---------------------------------------------------------------------------|
E|0----0-3-----0-3-3----4----4-4-4----7-7-7-7--------------------------------|

G|---------------------------------------------------------------------------|
D|---------------------------------------------------------------------------|
A|---------------------------------------------------------------------------|
E|0----0-3-----0-3-3----4----4-4-4----7-7-7-7--------------------------------|


Chorus:

G|---------------------------------------------------------------------------|
D|---------------------------------------------------------------------------|
A|---------------------------------------------------------------------------|
E|0----0-3-----0-3-3----4----4-4-4----7-7-7-7--------------------------------|

G|---------------------------------------------------------------------------|
D|---------------------------------------------------------------------------|
A|---------------------------------------------------------------------------|
E|0----0-3-----0-3-3----4----4-4-4----7-7-7-7--------------------------------|



Bridge:

G|---------------------------------------------------------------------------|
D|---------------------------------------------------------------------------|
A|---------------------------------------------------------------------------|
E|0----0-3-----0-3-3----4----4-4-4----7-7-7-7--------------------------------|

G|---------------------------------------------------------------------------|
D|---------------------------------------------------------------------------|
A|---------------------------------------------------------------------------|
E|0----0-3-----0-3-3----4----4-4-4----7-7-7-7--------------------------------|



Chorus:

G|---------------------------------------------------------------------------|
D|---------------------------------------------------------------------------|
A|---------------------------------------------------------------------------|
E|0----0-3-----0-3-3----4----4-4-4----7-7-7-7--------------------------------|

G|---------------------------------------------------------------------------|
D|---------------------------------------------------------------------------|
A|---------------------------------------------------------------------------|
E|0----0-3-----0-3-3----4----4-4-4----7-7-7-7--------------------------------|



Outro:

G|---------------------------------------------------------------------------|
D|---------------------------------------------------------------------------|
A|---------------------------------------------------------------------------|
E|0----0-3-----0-3-3----4----4-4-4----7-7-7-7--------------------------------|

G|---------------------------------------------------------------------------|
D|---------------------------------------------------------------------------|
A|---------------------------------------------------------------------------|
E|0----0-3-----0-3-3----4----4-4-4----7-7-7-7--------------------------------|

Almost there ...

Sign in to get your own page with links to favourite songs and more. You are just one click away...

Login with Facebook Login with Google