Log in

One click and you are in

Login with Facebook Login with Google

Why sign up and log in

Guitar Tabs Explorer
Sleaford Mods bass tabs for Bronx in a six

Bass tabs

Tuning: Standard (E A D G)

Difficulty: Novice

Just one riff repeated until the end of the song. So simple...

Chorus:

G|----------------|----------------|----------------|----------------|
D|----------------|----------------|----------------|----------------|
A|----------------|----------------|----------------|----------------|
E|5-5-5-6-6-6-6-6-|6-6-6-6-6-6-6-6-|5-5-5-6-6-6-6-6-|6-6-6-6-6-6-6-6-|


Verse 1:

G|----------------|----------------|----------------|----------------|
D|----------------|----------------|----------------|----------------|
A|----------------|----------------|----------------|----------------|
E|5-5-5-6-6-6-6-6-|6-6-6-6-6-6-6-6-|5-5-5-6-6-6-6-6-|6-6-6-6-6-6-6-6-|


Chorus:

G|----------------|----------------|----------------|----------------|
D|----------------|----------------|----------------|----------------|
A|----------------|----------------|----------------|----------------|
E|5-5-5-6-6-6-6-6-|6-6-6-6-6-6-6-6-|5-5-5-6-6-6-6-6-|6-6-6-6-6-6-6-6-|


Verse 2:

G|----------------|----------------|----------------|----------------|
D|----------------|----------------|----------------|----------------|
A|----------------|----------------|----------------|----------------|
E|5-5-5-6-6-6-6-6-|6-6-6-6-6-6-6-6-|5-5-5-6-6-6-6-6-|6-6-6-6-6-6-6-6-|


Chorus:

G|----------------|----------------|----------------|----------------|
D|----------------|----------------|----------------|----------------|
A|----------------|----------------|----------------|----------------|
E|5-5-5-6-6-6-6-6-|6-6-6-6-6-6-6-6-|5-5-5-6-6-6-6-6-|6-6-6-6-6-6-6-6-|


Verse 3:

G|----------------|----------------|----------------|----------------|
D|----------------|----------------|----------------|----------------|
A|----------------|----------------|----------------|----------------|
E|5-5-5-6-6-6-6-6-|6-6-6-6-6-6-6-6-|5-5-5-6-6-6-6-6-|6-6-6-6-6-6-6-6-|


Chorus:

G|----------------|----------------|----------------|----------------|
D|----------------|----------------|----------------|----------------|
A|----------------|----------------|----------------|----------------|
E|5-5-5-6-6-6-6-6-|6-6-6-6-6-6-6-6-|5-5-5-6-6-6-6-6-|6-6-6-6-6-6-6-6-|


Chorus:

G|----------------|----------------|----------------|----------------|
D|----------------|----------------|----------------|----------------|
A|----------------|----------------|----------------|----------------|
E|5-5-5-6-6-6-6-6-|6-6-6-6-6-6-6-6-|5-5-5-6-6-6-6-6-|6-6-6-6-6-6-6-6-|

Almost there ...

Sign in to get your own page with links to favourite songs and more. You are just one click away...

Login with Facebook Login with Google