Log in

One click and you are in

Login with Facebook Login with Google

Why sign up and log in

Guitar Tabs Explorer
Slayer bass tabs for War ensemble

Bass tabs with lyrics

Gtr I (Eb Ab Db Gb) - 'Untitled'

  Q=220
 4/4
  Gtr I
  Q  Q  H      H    Q  Q    Q  Q  H      W
|------------|------------|------------|------|
|------------|------------|------------|------|
|------------|------------|------------|------|
|-3----------|------6--5--|-3----------|------|
  W          H    Q  Q    W          H    Q  Q
|----------|------------|----------|-------------||
|----------|------------|----------|-------------||
|----------|------------|----------|---------7\--||
|----------|------6--5--|----------|-------------||


    S S E E S S E E S S E   E S S E E Q  Q
||------------------------|-----------------|
||o-----------------------|-----------------|
||o-----------------------|-----------------|
||--3p1p0-0-3p1p0-0-3p1p0-|-0-3p1p0-0-6--5--|


  S S E E S S E E S S E   E E E E E E E E
|-----------------------|-------------------||
|-----------------------|------------------o||
|-----------------------|-----2-1----------o||
|-3p1p0-0-3p1p0-0-3p1p0-|-0-3-----0-3-2-1---||


  E E E E E E E E   E E E E Q  Q     E E E E E E E E   E E E E Q  Q
|-----------------|----------------|-----------------|----------------|
|-----------------|----------------|-----------------|----------------|
|-----------------|----------------|-------3-2-----4-|-3-----7-6--6\--|
|-0-0-0-3-2-0-0-4-|-3-0-0-7-6--6\--|-0-0-0-----0-0---|---0-0----------|

  E E E E E E E E   E E E E Q  Q     E E E E E E E E   E E E E Q  Q
|-----------------|----------------|-----------------|----------------||
|-----------------|----------------|-----------------|----------------||
|-----------------|----------------|-------4-3-----5-|-4-----7-6--6\--||
|-0-0-0-3-2-0-0-4-|-3-0-0-7-6--6\--|-0-0-0-----0-0---|---0-0----------||


    E E E E E E E E   E E E E E E E E   E E E E E E E E   E E E E E E E E
||------------------|-----------------|-----------------|------------------|
||o-----------------|-----------------|-----------------|------------------|
||o-----------------|-----------------|-----------------|------------------|
||--3-3-3-3-3-3-3-3-|-3-3-3-3-3-3-3-3-|-3-3-3-3-3-3-3-3-|-3-3-3-3-3-3-3-3--|


  E E E E E E E E   E E E E E E E E   E E E E E E E E   E E E E E E E E
|-----------------|-----------------|-----------------|-----------------|
|-----------------|-----------------|-----------------|-----------------|
|-----------------|-----------------|-----------------|-----------------|
|-3-3-3-3-3-3-3-3-|-3-3-3-3-3-3-3-3-|-3-3-3-3-3-3-3-3-|-3-3-3-3-3-3-3-3-|


  E E E E E E E E   E E E E E E E E   E E E E E E E E   E E E E E E E E
|-----------------|-----------------|-----------------|-----------------|
|-----------------|-----------------|-----------------|-----------------|
|-----------------|-----------------|-----------------|-----------------|
|-3-3-3-3-3-3-3-3-|-3-3-3-3-3-3-3-3-|-3-3-3-3-3-3-3-3-|-3-3-3-3-3-3-3-3-|


                                                       1.
  E E E E E E E E   E E E E E E E E   E E E E E E E E   E E E E E E E E
|-----------------|-----------------|-----------------|-----------------|
|-----------------|-----------------|-----------------|-----------------|
|-----------------|-----------------|-----------------|-----------------|
|-3-3-3-3-3-3-3-3-|-3-3-3-3-3-3-3-3-|-3-3-3-3-3-3-3-3-|-3-3-3-3-3-3-3-3-|


  Q  Q  H      H    Q  Q    W          W
|------------|------------|----------|------|
|------------|------------|----------|------|
|------------|------------|----------|------|
|-3----------|------6--5--|----------|------|


  W          H    Q  Q    Q  Q  Q  Q    Q  Q  Q  Q
|----------|------------|-------------|-------------|
|----------|------------|-------------|-------------|
|----------|------------|-------------|-------------|
|----------|------6--5--|-0-----0-----|-0-----0-----|


                               2.
  Q  Q  Q  Q    Q  Q  H        E E E E E E E E
|-------------|-------------||-----------------||
|-------------|------------o||-----------------||
|-------------|------------o||-----------------||
|-0-----0-----|-0-----------||-3-3-3-3-3-3-3-3-||


  $
  E E E E E E E E   E E E E Q  Q     E E E E E E E E   E E E E E E E E
|-----------------|----------------|-----------------|-----------------|
|-----------------|----------------|-----------------|-----------------|
|-----------------|----------------|-----------------|-----------------|
|-0-0-0-3-2-0-0-4-|-3-0-0-7-6--6\--|-0-0-0-0-0-0-0-0-|-0-0-0-0-0-0-0-0-|


  E E E E E E E E   E E E E Q  Q     E E E E E E E E   E E E E E E E E
|-----------------|----------------|-----------------|-----------------|
|-----------------|----------------|-----------------|-----------------|
|-----------------|----------------|-----------------|-7-7-7-7-7-7-7-7-|
|-0-0-0-3-2-0-0-4-|-3-0-0-7-6--6\--|-0-0-0-0-0-0-0-0-|-----------------|


  E E E E E E E E   E E E E Q  Q    E E E E E E E E   E E E E Q  Q
|-----------------|---------------|-----------------|----------------|
|-----------------|---------------|-----------------|----------------|
|-----------------|---------------|-------3-2-----4-|-3-----7-6--6\--|
|-0-0-0-3-2-0-0-4-|-3-0-0-7-6--6--|-0-0-0-----0-0---|---0-0----------|


                                                             To Coda
  E E E E E E E E   E E E E Q  Q    E E E E E E E E   E E E E Q  Q
|-----------------|---------------|-----------------|----------------||
|-----------------|---------------|-----------------|----------------||
|-----------------|---------------|-------4-3-----5-|-4-----7-6--6\--||
|-0-0-0-3-2-0-0-4-|-3-0-0-7-6--6--|-0-0-0-----0-0---|---0-0----------||


    E E E E E E E E   E E E E E E E E
||------------------|-----------------|
||o-----------------|-----------------|
||o-----------------|-----------------|
||--2-2-2-2-2-2-2-5-|-3-3-3-3-3-3-3-0-|


                   1.,2.,3.             4.
                                        D.S. al Coda
  E E E E E E E E   E E E E E E E E      Q  Q  Q  Q
|-----------------|------------------||---------------||
|-----------------|-----------------o||---------------||
|-----------------|-----------------o||---------------||
|-2-2-2-2-2-2-2-5-|-3-3-3-3-1-1-1-1--||--3-----1------||


                        Q=196
  &                     $$
  Q  Q  H      W            E E E E E E E E   E E E E E E Q
|------------|----------||------------------|----------------|
|------------|----------||o-----------------|----------------|
|------------|----------||o---8-7-----------|----------------|
|-0----------|----------||--0-----0-6-5-0-8-|-7-0-7-6-3-5-6--|


  E E E E E E E E   E E E E E E Q    E E E E E E E E   E E E E E E Q
|-----------------|----------------|-----------------|----------------|
|-----------------|----------------|-----------------|----------------|
|---8-7-----------|----------------|---8-7-----------|----------------|
|-0-----0-6-5-0-8-|-7-0-7-6-3-6-4--|-0-----0-6-5-0-8-|-7-0-7-6-6-4-3--|


  E E E E E E E E   E E E E E E E E     E E E E E E E E   E E E E Q  Q
|-----------------|------------------||-----------------|---------------|
|-----------------|-----------------o||-----------------|---------------|
|---8-7-----------|-----------------o||-----------------|---------------|
|-0-----0-6-5-0-8-|-7-0-7-6-1---1----||-0-0-0-0-0-0-0-0-|-0-0-0-0-3--5--|


  Q  +Q    E E E E   E E E E Q  Q    Q  +Q    E E E E   E E E E Q  Q
|------------------|---------------|------------------|---------------|
|------------------|---------------|------------------|---------------|
|------------------|---------------|------------------|---------------|
|-6--(6)\--0-0-0-0-|-0-0-0-0-3--6--|-4--(4)\--0-0-0-0-|-0-0-0-0-6--4--|


  Q  +Q    E E E E   E E E E Q  Q    H    E E E E   E E E E Q  Q
|------------------|---------------|--------------|---------------|
|------------------|---------------|--------------|---------------|
|------------------|---------------|--------------|---------------|
|-3--(3)\--0-0-0-0-|-0-0-0-0-1--1--|-1----0-0-0-0-|-0-0-0-0-3--5--|


  Q  +Q    E E E E   E E E E Q  Q    Q  +Q    E E E E   E E E E Q  Q
|------------------|---------------|------------------|---------------|
|------------------|---------------|------------------|---------------|
|------------------|---------------|------------------|---------------|
|-6--(6)\--0-0-0-0-|-0-0-0-0-3--6--|-4--(4)\--0-0-0-0-|-0-0-0-0-6--4--|


     To Dbl. Coda     D.S.S. al Dbl. Coda
                                      2/4
  Q  +Q    E E E E   E E E E E E E E   H
|------------------|-----------------|------||
|------------------|-----------------|------||
|------------------|-----------------|------||
|-3--(3)\--0-0-0-0-|-0-0-0-0-1---1---|------||


                  Q=220
  &&
 4/4
  E E E E E E E E     E E E E E E E E   E E E E E E E E   4x
|-----------------||------------------|-------------------||
|-----------------||o-----------------|------------------o||
|-----------------||o-----------------|------------------o||
|-0-0-0-0-1---1---||--0---0---0---0---|-0---0---0---0-----||


    E E E E E E E E   E E E E E E E E  4x     E E E E E E E E   E E E E Q  Q
||------------------|------------------||-||------------------|----------------|
||o-----------------|-----------------o||-||o-----------------|----------------|
||o-----------------|-----------------o||-||o-----------------|----------------|
||--0---0---0---0---|-0---0---0---0----||-||--0-0-0-3-2-0-0-4-|-3-0-0-7-6--6\--|


                   1.                   2.
  E E E E E E E E   E E E E E E E E     E E E E E E E E
|-----------------|------------------||-----------------|
|-----------------|-----------------o||-----------------|
|-----------------|-----------------o||-7-7-7-7-7-7-7-7-|
|-0-0-0-0-0-0-0-0-|-0-0-0-0-0-0-0-0--||-----------------|


  E E E E E E E E   E E E E Q  Q    E E E E E E E E   E E E E Q  Q
|-----------------|---------------|-----------------|----------------|
|-----------------|---------------|-----------------|----------------|
|-----------------|---------------|-------3-2-----4-|-3-----7-6--6\--|
|-0-0-0-3-2-0-0-4-|-3-0-0-7-6--6--|-0-0-0-----0-0---|---0-0----------|


  E E E E E E E E   E E E E Q  Q    E E E E E E E E   E E E E Q  Q
|-----------------|---------------|-----------------|----------------||
|-----------------|---------------|-----------------|----------------||
|-----------------|---------------|-------4-3-----5-|-4-----7-6--6\--||
|-0-0-0-3-2-0-0-4-|-3-0-0-7-6--6--|-0-0-0-----0-0---|---0-0----------||


    E E E E E E E E   E E E E E E E E
||------------------|-----------------|
||o-----------------|-----------------|
||o-----------------|-----------------|
||--0-0-0-0-0-0-0-0-|-0-0-0-0-0-0-0-0-|


                   1.,2.,3.             4.
  E E E E E E E E   E E E E E E E E      Q  Q  H
|-----------------|------------------||-------------||
|-----------------|-----------------o||-------------||
|-----------------|-----------------o||-------------||
|-0-0-0-0-0-0-0-0-|-0-0-0-0-0-0-0-0--||--0----------||


  E E E E E E E E   E E E E Q  Q     E E E E E E E E   E E E E E E E E
|-----------------|----------------|-----------------|-----------------|
|-----------------|----------------|-----------------|-----------------|
|-----------------|----------------|-----------------|-----------------|
|-0-0-0-3-2-0-0-4-|-3-0-0-7-6--6\--|-0-0-0-0-0-0-0-0-|-0-0-0-0-0-0-0-0-|


  E E E E E E E E   E E E E Q  Q     E E E E E E E E    E  E  E  E  E  E  Q
|-----------------|----------------|-----------------|------------------------|
|-----------------|----------------|-----------------|------------------------|
|-----------------|----------------|-----------------|-19-19-19-19-19-19-19\--|
|-0-0-0-3-2-0-0-4-|-3-0-0-7-6--6\--|-0-0-0-0-0-0-0-0-|------------------------|


  E E E E E E E E   E E E E Q  Q    E E E E E E E E   E E E E Q  Q
|-----------------|---------------|-----------------|----------------|
|-----------------|---------------|-----------------|----------------|
|-----------------|---------------|-------3-2-----4-|-3-----7-6--6\--|
|-0-0-0-3-2-0-0-4-|-3-0-0-7-6--6--|-0-0-0-----0-0---|---0-0----------|


  E E E E E E E E   E E E E Q  Q    E E E E E E E E   E E E E Q  Q
|-----------------|---------------|-----------------|----------------|
|-----------------|---------------|-----------------|----------------|
|-----------------|---------------|-------4-3-----5-|-4-----7-6--6\--|
|-0-0-0-3-2-0-0-4-|-3-0-0-7-6--6--|-0-0-0-----0-0---|---0-0----------|


  Q  Q  H      H    Q  Q    W          H    Q  Q
|------------|------------|----------|------------|
|------------|------------|----------|------------|
|------------|------------|----------|------------|
|-3----------|------6--5--|----------|------6--5--|


  Q  Q  Q  Q    Q  Q  H      E q  e +E  q  e   +E  q  E +E  E Q
|-------------|------------|-----------------|-------------------*|
|-------------|------------|-----------------|-------------------*|
|-------------|------------|-----------------|-------------------*|
|-0-----0-----|-0----------|-1-0--0-(0)-0--0-|-(0)-0--0-(0)------*|


Duration Legend
---------------
W - whole; H - half; Q - quarter; E - 8th; S - 16th; T - 32nd; X - 64th; a - acciaccatura
+ - note tied to previous; . - note dotted; .. - note double dotted
Uncapitalized letters represent notes that are staccato (1/2 duration)
Irregular groupings are notated above the duration line
Duration letters will always appear directly above the note/fret number it represents the
duration for.  Duration letters with no fret number below them represent rests.  Multi-
bar rests are notated in the form Wxn, where n is the number of bars to rest for.  Low
melody durations appear below the staff

Tablature Legend
----------------
 h   - hammer-on
 p   - pull-off
 b   - bend
 pb  - pre-bend
 r   - bend release (if no number after the r, then release immediately)
 /\  - slide into or out of (from/to "nowhere")
 s   - legato slide
 S   - shift slide
<n> - natural harmonic
n:  - artificial harmonic
n(n) - tapped harmonic
 ~   - vibrato
 tr  - trill
 T   - tap
 TP  - trem. picking
 PM  - palm muting
\n/  - tremolo bar dip; n = amount to dip
 \n  - tremolo bar down
 n/  - tremolo bar up
/n\  - tremolo bar inverted dip
 =   - hold bend; also acts as connecting device for hammers/pulls
 <> - volume swell (louder/softer)
 x   - on rhythm slash represents muted slash
 o   - on rhythm slash represents single note slash

Misc Legend
-----------
 |  - bar
||  - double bar
||o - repeat start
o|| - repeat end
*|  - double bar (ending)
 :  - bar (freetime)
 $  - Segno
 &  - Coda
Tempo markers - <E/E./Q/Q./H/H.> = BPM(8/16=s8/s16), where s8 = swing 8ths, s16 = swing 16ths

Almost there ...

Sign in to get your own page with links to favourite songs and more. You are just one click away...

Login with Facebook Login with Google