Log in

One click and you are in

Login with Facebook Login with Google

Why sign up and log in

Guitar Tabs Explorer
Slayer bass tabs for Strain of mind

Bass tabs

Band- Slayer
Song- Strain Of Mind

tune down 1 1/2 steps(D#,A#,D#,G#)
Riff 1 X2
|------------------------------------------|
|------------------------------------------|
|---7---7---7---7-6-7---7---7---7---7-10-9-|
|-0---0---0---0-------0---0---0---0--------|

|-----------------------------------------|
|-----------------------------------------|
|---7---7---7---7-6-7---7---7---7---7-9-8-|
|-0---0---0---0-------0---0---0---0-------|


Riff 2
|-------------------------------|
|-------------------------------|
|------10--9--8--------10--9--8-|
|-0~--------------0~------------|

Guitar only
|-----|
|-----|
|-----|
|-0-3-|x4


Verse Riff x10
|---------------------------|
|---------------------------|
|---------------------------|
|--0-2--0-2--0-2--0-2--0--3-|

Guitar only

Chorus x10(i think)
|---------------------|
|---------------------|
|---------------------|
|-\\-0-2-3-5--0-2-3-5-|


verse


chorus

i think it goes like this under the solo but im not entirely sure
|---------------------------|
|---------------------------|
|---------------------------|
|--5-7--5-7--5-7--5-7--5--8-|

|-----|
|-----|
|-----|
|-0-3-|


verse


chorus(this time it's bass over guitars)


Riff 1

Last Riff
|-------------------------------|
|-------------------------------|
|------10--9--8-----------------|
|--0~------------0~---3--2--1-0-|

Almost there ...

Sign in to get your own page with links to favourite songs and more. You are just one click away...

Login with Facebook Login with Google