Log in

One click and you are in

Login with Facebook Login with Google

Why sign up and log in

Guitar Tabs Explorer
Slayer bass tabs for Silent scream

Bass tabs

Band- Slayer
Song- Silent Scream

Eb Tuning
Gb||------------------||-----------------------------|
Db||------------------||*----------------------------|
Ab||------------------||*--7--7----------------------|
Eb||------------------||-------------0-0-0-0-0-0-0-0-|


                                   3x
-----------------------------------||--------------------|------------------|
----------------------------------*||--------------------|------------------|
----------------------------------*||--7--7--------------|------------------|
--0-0-0-0-0-0-0-0-0-0-0-0-0-0-0-0--||--------------------|------------------|


--------------------|------------------|--------------------|------------------|
--------------------|------------------|--------------------|------------------|
--7--7--------------|------------------|--7--7--------------|------------------|
--------------------|------------------|--------------------|------------------|


--------------------|------------------|-----------------------------|
--------------------|------------------|---------------9-------------|
--7--7--------------|------------------|--7--7------------10---------|
--------------------|------------------|--------0-0-0---------0-0-0--|


-----------------------------|-----------------------------|
--8---------------10---------|---------------9-------------|
-----9---------8-------------|--7--7------------10---------|
--------0-0-0---------0-0-0--|--------0-0-0---------0-0-0--|


-----------------------------|-----------------------------|
--8--------------------------|---------------9-------------|
-----9---------8--10---------|--7--7------------10---------|
--------0-0-0---------0-0-0--|--------0-0-0---------0-0-0--|


-----------------------------|-----------------------------|
--8---------------10---------|---------------9-------------|
-----9---------8-------------|--7--7------------10---------|
--------0-0-0---------0-0-0--|--------0-0-0---------0-0-0--|


----------------------------||------------------------------|
--8------------7------------||*---------------9-------------|
-----9------------8---------||*--7--7------------10---------|
--------0-0-0--------0-0-0--||---------0-0-0---------0-0-0--|


-----------------------------|-----------------------------|
--8---------------10---------|---------------9-------------|
-----9---------8-------------|--7--7------------10---------|
--------0-0-0---------0-0-0--|--------0-0-0---------0-0-0--|


-----------------------------|-----------------------------|
--8--------------------------|---------------9-------------|
-----9---------8--10---------|--7--7------------10---------|
--------0-0-0---------0-0-0--|--------0-0-0---------0-0-0--|


-----------------------------|-----------------------------|
--8---------------10---------|---------------9-------------|
-----9---------8-------------|--7--7------------10---------|
--------0-0-0---------0-0-0--|--------0-0-0---------0-0-0--|


----------------------------|-----------------------------|
--8------------7------------|---------------9-------------|
-----9------------8---------|--7--7------------10---------|
--------0-0-0--------0-0-0--|--------0-0-0---------0-0-0--|


-----------------------------|-----------------------------|
--8---------------10---------|---------------9-------------|
-----9---------8-------------|--7--7------------10---------|
--------0-0-0---------0-0-0--|--------0-0-0---------0-0-0--|


-----------------------------|-----------------------------|
--8--------------------------|---------------9-------------|
-----9---------8--10---------|--7--7------------10---------|
--------0-0-0---------0-0-0--|--------0-0-0---------0-0-0--|


-----------------------------|-----------------------------|
--8---------------10---------|---------------9-------------|
-----9---------8-------------|--7--7------------10---------|
--------0-0-0---------0-0-0--|--------0-0-0---------0-0-0--|


----------------------------|----------------------------|
--8------------7------------|----------------------------|
-----9------------8---------|--7---------5--7---------5--|
--------0-0-0--------0-0-0--|-----0-0-0--------0-0-0-----|


--------------------------|----------------------------|
--------------------------|----------------------------|
--7---------5--7----------|------------0--2---------0--|
-----0-0-0--------0--1----|--0--0-0-0--------0-0-0-----|


--------------------------|----------------------------|
--------------------------|----------------------------|
--2---------0--2----------|------------5--7---------5--|
-----0-0-0--------0--1----|--0--0-0-0--------0-0-0-----|


--------------------------|----------------------------|
--------------------------|----------------------------|
--7---------5--7----------|------------0--2---------0--|
-----0-0-0--------0--1----|--0--0-0-0--------0-0-0-----|


--------------------------|----------------------|-----------------------||
--------------------------|----------------------|----------------------*||
------------0--2----------|---------5--7------5--|--7------5--7----8----*||
--0--0-0-0--------0--1----|--0-------------------|-----------------------||


----------------------------|--------------------------|
----------------------------|--------------------------|
------------5--7---------5--|--7---------5--7----------|
--0--0-0-0--------0-0-0-----|-----0-0-0--------0--1----|


----------------------------|--------------------------|----------------------|
----------------------------|--------------------------|----------------------|
------------0--2---------0--|--2---------0--2----------|---------5--7------5--|
--0--0-0-0--------0-0-0-----|-----0-0-0--------0--1----|--0-------------------|


----------------------|----------------------------|--------------------------|
----------------------|----------------------------|--------------------------|
--7------5--7----8----|--7---------5--7---------5--|--7---------5--7-----8----|
----------------------|-----0-0-0--------0-0-0-----|-----0-0-0--------0-------|


----------------------------|--------------------------|
----------------------------|--------------------------|
--7---------5--7---------5--|--7---------5--7-----8----|
-----0-0-0--------0-0-0-----|-----0-0-0--------0-------|


----------------------------|--------------------------|
----------------------------|--------------------------|
--7---------5--7---------5--|--7---------5--7-----8----|
-----0-0-0--------0-0-0-----|-----0-0-0--------0-------|


----------------------------|--------------------------|
----------------------------|--------------------------|
--7---------5--7---------5--|--7---------5--7-----8----|
-----0-0-0--------0-0-0-----|-----0-0-0--------0-------|


----------------------------|--------------------------|
----------------------------|--------------------------|
--7---------5--7---------5--|--7---------5--7-----8----|
-----0-0-0--------0-0-0-----|-----0-0-0--------0-------|


----------------------------|--------------------------|
----------------------------|--------------------------|
--7---------5--7---------5--|--7---------5--7-----5----|
-----0-0-0--------0-0-0-----|-----0-0-0--------0-------|


------------------------------|-----------------------------|
-----------------6------------|--5---------------7----------|
--------------------7---------|-----6---------5-------------|
--4-4-4-4-4-4-4--------4-4-4--|--------4-4-4--------4-4-4-4-|


------------------------------|-----------------------------|
-----------------6------------|--5--------------------------|
--------------------7---------|-----6---------5--7----------|
--4-4-4-4-4-4-4--------4-4-4--|--------4-4-4--------4-4-4-4-|


------------------------------|-----------------------------|
-----------------6------------|--5---------------7----------|
--------------------7---------|-----6---------5-------------|
--4-4-4-4-4-4-4--------4-4-4--|--------4-4-4--------4-4-4-4-|


------------------------------|-----------------------------|
-----------------6------------|--5------------4-------------|
--------------------7---------|-----6------------5----------|
--4-4-4-4-4-4-4--------4-4-4--|--------4-4-4--------4-4-4-4-|


------------------------------|-----------------------------|
-----------------6------------|--5---------------7----------|
--------------------7---------|-----6---------5-------------|
--4-4-4-4-4-4-4--------4-4-4--|--------4-4-4--------4-4-4-4-|


------------------------------|-----------------------------|
-----------------6------------|--5--------------------------|
--------------------7---------|-----6---------5--7----------|
--4-4-4-4-4-4-4--------4-4-4--|--------4-4-4--------4-4-4-4-|


------------------------------|-----------------------------|
-----------------6------------|--5---------------7----------|
--------------------7---------|-----6---------5-------------|
--4-4-4-4-4-4-4--------4-4-4--|--------4-4-4--------4-4-4-4-|


------------------------------|-----------------------------|
-----------------6------------|--5------------4-------------|
--------------------7---------|-----6------------5----------|
--4-4-4-4-4-4-4--------4-4-4--|--------4-4-4--------4-4-4-4-|


----------------------------|--------------------------|
----------------------------|--------------------------|
--7---------5--7---------5--|--7---------5--7-----8----|
-----0-0-0--------0-0-0-----|-----0-0-0--------0-------|


----------------------------|--------------------------|
----------------------------|--------------------------|
--7---------5--7---------5--|--7---------5--7-----8----|
-----0-0-0--------0-0-0-----|-----0-0-0--------0-------|


----------------------------|--------------------------|
----------------------------|--------------------------|
--7---------5--7---------5--|--7---------5--7-----8----|
-----0-0-0--------0-0-0-----|-----0-0-0--------0-------|


----------------------------|--------------------------|-------------------|
----------------------------|--------------------------|-------------------|
--7---------5--7---------5--|--7---------5--7-----8----|--7------7--7------|
-----0-0-0--------0-0-0-----|-----0-0-0--------0-------|-------------------|


------------------------------|----------------------------|
------------------------------|----------------------------|
------------------2-1-0--1----|------------------5----4----|
--0-0-0-0-0-0-0-0-------------|--0-0-0-0-0-0-0-0-----------|


------------------------------|--------------------------------|
------------------------------|--------------------------------|
------------------2-1-0--1----|------------------2-1-0--1-0----|
--0-0-0-0-0-0-0-0-------------|--0-0-0-0-0-0-0-0------------3--|


|-------------------------------|----------------------------|
|*------------------------------|----------------------------|
|*------------------2-1-0--1----|------------------5----4----|
|---0-0-0-0-0-0-0-0-------------|--0-0-0-0-0-0-0-0-----------|


                                                                2x
------------------------------|---------------------------------||
------------------------------|--------------------------------*||
------------------2-1-0--1----|------------------2-1-0--1-0----*||
--0-0-0-0-0-0-0-0-------------|--0-0-0-0-0-0-0-0------------3---||


                                                                 3x
-----------------------------|-----------------------------------||
*----------------------------|----------------------------------*||
*--7--7----------------------|----------------------------------*||
-------------0-0-0-0-0-0-0-0-|--0-0-0-0-0-0-0-0-0-0-0-0-0-0-0-0--||


-----------------------------|-----------------------------|
---------------9-------------|--8---------------10---------|
--7--7------------10---------|-----9---------8-------------|
--------0-0-0---------0-0-0--|--------0-0-0---------0-0-0--|


-----------------------------|-----------------------------|
---------------9-------------|--8--------------------------|
--7--7------------10---------|-----9---------8--10---------|
--------0-0-0---------0-0-0--|--------0-0-0---------0-0-0--|


-----------------------------|-----------------------------|
---------------9-------------|--8---------------10---------|
--7--7------------10---------|-----9---------8-------------|
--------0-0-0---------0-0-0--|--------0-0-0---------0-0-0--|


-----------------------------|----------------------------|
---------------9-------------|--8------------7------------|
--7--7------------10---------|-----9------------8---------|
--------0-0-0---------0-0-0--|--------0-0-0--------0-0-0--|


----------------------------|--------------------------|
----------------------------|--------------------------|
--7---------5--7---------5--|--7---------5--7----------|
-----0-0-0--------0-0-0-----|-----0-0-0--------0--1----|


----------------------------|--------------------------|-------------------|
----------------------------|--------------------------|-------------------|
--7---------5--7---------5--|--7---------5--7----------|--2----------------|
-----0-0-0--------0-0-0-----|-----0-0-0--------0--1----|-------------------|


-------------------|----------------------------|--------------------------|
-------------------|----------------------------|--------------------------|
--1----------------|------------0--2---------0--|--2---------0--2----------|
-------------------|--0--0-0-0--------0-0-0-----|-----0-0-0--------0--1----|


----------------------|-------------------||
----------------------|-------------------||
----------------------|-------------------||
--0------0--0------0--|--0----------------||

Almost there ...

Sign in to get your own page with links to favourite songs and more. You are just one click away...

Login with Facebook Login with Google