Log in

One click and you are in

Login with Facebook Login with Google

Why sign up and log in

Guitar Tabs Explorer
Slayer bass tabs for Perversion of pain

Bass tabs

Perversion of Pain - Slayer


Originally Transcribed by Julio S.A.F.

Gb|--------------|---------------------|
Db|--------------|---------------------|
Ab|--2-----------|--2--------0---------|
Eb|-----3--2--1--|-----2--1------------|

verse

Gb|---------------------------|--------------|
Db|---------------------------|--------------|
Ab|--2------------------------|--2--------0--|   4x
Eb|---0000030000020000010000--|-----2--1-----|


chorus  "perversions of pain...

Gb|-----------------------------------|  3x
Db|-----------------------------------|
Ab|-----------------------------------|
Eb|--0------0------0------0-----------|


verse


chorus

Gb|---------------------------------------------------------|
Db|---------------------------------------------------------|
Ab|----2-1------3-2--------4-3-----6----5-4--------2-1------|
Eb|--0-----2--0-----3-2--0-----4-3----0-----5-4--0-----2----|


------------------------------------------------------------|
------------------------------------------------------------|
----3-2-----5----4-3--------5-4-----7----2-1------3-2-------|
--0-----3-2----0-----4-3--0-----5-4----0-----2--0-----3-2---|

----------------------------|
----------------------------|
----4-3-----6----5-4--------|
--0-----4-3----0-----5-4----|


Gb|-------------------------------------------------|
Db|-------------------------------------------------|
Ab|-------------------------------------------------|  2x
Eb|--0------32-------21------21-------654-----------|


solo

Gb|-------------------------------------------------|
Db|-------------------------------------------------|
Ab|-------------------------------------------------|
Eb|--00000000320000000000210000000021000000000654---|


Gb|-------------------------------------------------|
Db|-------------------------------------------------|
Ab|-------------------------------------------------|
Eb|--00000000320000000000210000000021000000000321---|


Gb|-------------------------------------------------|
Db|-------------------------------------------------|
Ab|--7----8----11----10----7----6----2----1---------| 2x
Eb|-------------------------------------------------|


Gb|--------------|---------------------|
Db|--------------|---------------------|
Ab|--2-----------|--2------------------|
Eb|-----3--2--1--|-----2--1--5---------|


verse


chorus


Gb|-------------------------------------------------------------|--------|
Db|-------------------------------------------------------------|--------|
Ab|-------------------------------------------------------------|--------|
Eb|-0-0-0-0-0-0-0-0-0-0-0-0-0-0-0-0-0-0-5-5-5-5-5-5-5-4-4-4-4-4-|-44-1---|

Almost there ...

Sign in to get your own page with links to favourite songs and more. You are just one click away...

Login with Facebook Login with Google