Log in

One click and you are in

Login with Facebook Login with Google

Why sign up and log in

Guitar Tabs Explorer
Slayer bass tabs for Necrophiliac

Bass tabs

Tuning: Eb,Ab,Db,Gb

|-----------------------------------------------------------------|
|---4--3----------------------------------------------------------|
|----------4--3---5--4----------6--5----------5--4----------------|
|-------------------------5--4----------6--5----------5--4---2----|

|---------------------------------------------|
|---------------------------------------------|
|---------------------------------------------|
|---2----------3----------0----------2--2-----|

Fig. 1
|----------------------------------------------------------------|
|----------------------------------------------------------------|
|----------------------------------------------------------------|
|---2---2--2--2--2---2--2--2--2---2--2--2--2---2--2--2--2--------|

Fig. 2
|--------------------------------------------------------------------------|
|--------------------------------------------------------------------------|
|--------------------------------------------------------------------------|
|--0-0-0-0--0-0-0-0--1-1-1-1--5-5-5-5--4-4-4-4--4-4-4-4--8-8-8-8--7-7-7-7--|

|------------------------------------------------|
|------------------------------------------------|
|------------------------------------------------|
|--0-0-0-0--0-0-0-0--1-1-1-1--5-5-5-5--4---------|

1st Verse w/Fig. 1 (4x)

Fig. 2 (1x)

2nd Verse w/Fig. 1 (4x)

Riff A
My task completes...
|----------------------------------------------------|
|----------------------------------------------------|
|----------------------------------------------------|
|---4-4-4-4--4-4-4-4--5\2---2-2-2-2--2-2-2-2---------|


Riff B (4x)
|----------------------------|
|----------------------------|
|----------------------------|
|--0--0-------------0-0------|

Guitar Solo I w/Fig. 3 (3x)
Fig. 3
|-------------------------------------------|
|-------------------------------------------|
|---5-5-5-5--5-5-5-5--5-5-5-5--5-5-5-5--6\--|
|-------------------------------------------|

|---------------------------------------|
|---------------------------------------|
|-2-2-2-2--2-2-2-2--2-2-2-2--2-2-2-2-6\-|
|---------------------------------------|

|------------------------------------------------|
|------------------------------------------------|
|---2-2-2-2--2-2-2-2--2-2-2-2--2-2-2-2--6\-------|
|------------------------------------------------|

|------------------------------------------------|
|------------------------------------------------|
|------------------------------------------------|
|---0-0-0-0--0-0-0-0--1-1-1-1--5-5-5-5--4-4-4-4--|

|------------------------------------------------|
|------------------------------------------------|
|------------------------------------------------|
|4-4-4-4--8-8-8-8--7-7-7-7-----------------------|

|-------------------------------------------------------------------|
|-------------------------------------------------------------------|
|-------------------------------------------------------------------|
|---0--------------------1---------5---4-----------------8---7------|

3rd Verse w/Fig. 1 (4x)


Riff A (1x)


|---------------------------------------------------------------------------|
|---------------------------------------------------------------------------|
|---------------------------------------------------------------------------|
|---0--------------------------2-----6---------------------------0---1------|

|---------------------------------------------------------------------------|
|---------------------------------------------------------------------------|
|------8-----------------------8-----7--------------------------/10---9-----|
|---7-----------------------------------------------------------------------|

|---------------------------------------------------------------------------|
|---------------------------------------------------------------------------|
|-------------------------------7-----6-------------------------5-----5\----|
|---7--8--------------------------------------------------------------------|

Sorry guys, but that's all I could do. I leave in the great words of Slayer. GOD HATES US ALL!!!

Jim1845

Other versions of Necrophiliac

Necrophiliac (Ver. 2)Bass tabs

Almost there ...

Sign in to get your own page with links to favourite songs and more. You are just one click away...

Login with Facebook Login with Google