Log in

One click and you are in

Login with Facebook Login with Google

Why sign up and log in

Guitar Tabs Explorer
Slayer bass tabs for Mr. freeze

Bass tabs

Riff A:
|---------------|-------------------|
|---------------|-------------------|
|---------------|-------------------|
|-1-1-1-1-0-0-0-|-3-3-3--2---2--1---|
Riff B
|---------|-----------|
|---------|-----------|
|---------|-----------|
|-6-6---6-|-5--4-4--4-|


Riff C:
|----------------|----------------------------------|
|----------------|----------------------------------|
|----------------|----------------------------------|
|-8--8---8--9--8-|-6/8-8-8-8-8-8-8--6/8-8-8-8-8-8-8-|


Riff D:
|---------------|
|---------------|
|---------------|
|-7-7--6--5-5-5-|


Riff E:
|-------------------|
|-------------------|
|-------------------|
|--9--9----8--7-7-7-|


Riff F:
|---------------------|
|---------------------|
|---------------------|
|-11-11--10--9--9--9--|

Playlist:

Riff 1 x8

Riff 2 x4

Riff 1 x4

Riff 2 x

work the rest out for yourself!

Almost there ...

Sign in to get your own page with links to favourite songs and more. You are just one click away...

Login with Facebook Login with Google