Log in

One click and you are in

Login with Facebook Login with Google

Why sign up and log in

Guitar Tabs Explorer
Slayer bass tabs for Mandatory suicide

Bass tabs with lyrics

SONG: MANDATORY SUICIDE
BAND: SLAYER
ALBUM: NOT SURE, I KNOW IT FROM DECADE OF AGGRRESSION
TABEED BY: GARETH RICHARDS
EMAIL: jackslackofsurprise@hotmail.com

this is a really easy song for slayer, it could be picked up by ear quite
easily but for anyone that doesn't have years of ear trained bass playing
and would like to see it written down, here it is. tune down half a step
(i'm too lazy to keep writing all the flat signs so i won't!) and enjoy
the sheer heavyness of this tune!

 2 beat rest           4/4 riff A                 x 4
G--------------------||-----------|------------------||
D--------------------||*----------|-----------------*||
A--------------------||*----------|-----------------*||
E-------------3-2--1-||--0--------|-(0)------3-2--1--||
              e e  q     w          (h)      e e  q

 riff B                    (1,2,3 time - - - - - - -)
G--------------------------|-----------------------||
D*-------------------------|----------------------*||
A*-------------------------|----------------------*||
E--0--r--r--0---0--r--r--0-|-0--r--r--0---3--2--1--||
   e  r  r  e   e  r  r  e   e  r  r  e   e  e  q

 (4th time - - - - - - )
G----------------------||
D----------------------||
A----------------------||
E-0--r--r--0---4-----1-||
  e  r  r  e   q.    e

 riff C                     x 4
G-----------|------------------||
D*----------|-----------------*||
A*----------|-----------------*||
E--0--------|-(0)------4----1--||
   w          (h)      q.   e

 6/4  riff D           X 4    2/4
G---------------------------||---------||
D--------------------------*||---------||
A--------------------------*||---------||
E-0-3-0-3-2-1--0-3-0-3-2-1--||-4-----1-||
  e e e e e e  e e e e e e     q.    e

 4/4 verse                         x 4   bridge riff (a)  x4
G-------------------|------------------||--------------------|
D*------------------|-----------------*||--------------------|
A*------------------|-----------------*||--------------------|
E--0-0-0-0--0-0-0-0-|-0-0-0-0--4-----1-||-0--0---------------|
   e e e e  e e e e   e e e e  q.    e    e  e

  bridge riff (b)       x 3
G---------------------------||---------------------||
D*-------------------------*||---------------------||
A*--------2----1-----------*||--------2------------||
E--0--0-----------0--2--3---||-0--0--------4-----1-||
   e  e   q    e  e  e  e      e  e   q    q.    e

   then do...

|| verse riff x4 || riff D x4 || riff A x2 || riff B x2 ||

   then...

 solo riff                                        x 6
G-------------------------|--------------------------||
D*------------------------|-------------------------*||
A*------------------------|-------------------------*||
E--0----0--0---0--0--1--2-|-3--1--1--1---1--1--1--1--||
   q    e  e   e  e  e  e   e  e  e  e   e  e  e  e

   then do...

|| bridge || verse x2 || riff D x4 ||

   then...

 hold under drum fill
G---------------------||
D---------------------||
A---------------------||
E-0-------------------||

   then...

|| solo riff E x19! ||

   then big finish!

G----------||
D----------||
A----------||
E-0--------||
  >
  w

and relax.

________________________________________________________________________________

Almost there ...

Sign in to get your own page with links to favourite songs and more. You are just one click away...

Login with Facebook Login with Google