Log in

One click and you are in

Login with Facebook Login with Google

Why sign up and log in

Guitar Tabs Explorer
Slayer bass tabs for Jesus saves

Bass tabs with lyrics

Great song to play and build your speed.


Tuning: Eb Ab Db Gb

x: Amount of times
/: Slide Up
\: Slide Down
h: Hammer-On
p: Pull-Off
(): Ghost Note/Hold Note

Sorry about all the intros. I think there's 6 or 7 parts.

Intro 1A 1x (Strike with guitar and drums)
Gb: |-----------|
Db: |-----------|
Ab: |-----------|
Eb: |0---0-0-0-0|

Gb: |-----------|
Db: |-----------|
Ab: |----3-----2|
Eb: |0-0---0-0--|


Intro 1B 1x
Gb: |----------------------------|
Db: |-----------------------1h2p1|
Ab: |----1-1-----1-1-----2\1-----|
Eb: |0-0--0--0-0--0--0-0---------|

Gb: |-------------------------------|
Db: |-------------------------------|
Ab: |----1-1-----1-1-----2\1-----2\1|
Eb: |0-0--0--0-0--0--0-0-----2-4----|

Gb: |----------------------------|
Db: |-----------------------1h2p1|
Ab: |----1-1-----1-1-----2/1-----|
Eb: |0-0--0--0-0--0--0-0---------|

Gb: |-----------------------------|
Db: |-----------------------------|
Ab: |---1-1----1-1-----3---2------|
Eb: |0-0-0--0-0-0--0-0--0-0-------|

Intro 1C 1x
Gb: |--------------------------------------------------------------------|
Db: |--------------------------------------------------------------------|
Ab: |--------------------------------------------------------------------|
Eb: |0--0-0-0--0-0-0-0-0-0-0--0-0-0-0-0-0-0--0-0-0-0-0-0-0--0-0-0-0-0-0-0|

Gb: |-------------------------------------------|
Db: |-------------------------------------------|
Ab: |-------------------------------------------|
Eb: |0-0-0-0-0-0-0--0-0-0-0-0-0-0--0-0-0-0-0-10\]


Intro 1D 3x
Gb: |----------------|
Db: |----------------|
Ab: |----------------|
Eb: |5-5-5/6--9-9-9\8|


Intro 1E 1x
Gb: |-------------------------------|
Db: |-------------------------------|
Ab: |-------------------------------|
Eb: |5-5-5/6--9-9-9\8-8-8-8-8-8/18\2|


Intro 1F 6x
Gb: |-------------------|
Db: |-------------------|
Ab: |----8-7---8-7-11-10|
Eb: |0-0-----0----------|

2x
Gb: |--------------------|
Db: |---10-9---10-9-13-12|
Ab: |--------------------|
Eb: |0-0-----0-----------|

Pre-Verse 2x
Gb: |------------------|
Db: |------------------|
Ab: |------------------|
Eb: |0-0-0--0-0-0-0-0-0|


Verse 4x
Gb: |-------------------------------------------------------|
Db: |-------------------------------------------------------|
Ab: |-------------------------------------------------------|
Eb: |0-0-0-0-0-0-0-0-3-0-0-0-0-0-0-0-0-0-0-0-0-0-0-0-0-4-7-6|


Chorus 3x
Gb: |---------------------------------------|
Db: |---------------------------------------|
Ab: |---------------------------------------|
Eb: |0-0-0-0-0-0-0-0-3-0-0-0-0-0-0-0-0-3-4-6|


Verse 6x


Solo 1 2x
Gb: |---------------------------------------------------------|
Db: |---------------------------------------------------------|
Ab: |------------------------------------------3-3-3-3-2-2-2-2|
Eb: |4-4-4-4-4-4-5-4-4-4-4-4-4-5-4-4-4-4-4-4-5----------------|


Chorus 3x


Solo 2
Gb: |-----------------------------------------------------------------------|
Db: |-----------------------------------------------------------------------|
Ab: |-----------------------------------------------------------------------|
Eb: |0-0-0-0-0-0-2-2-2-3-3-3/6-6-6-6-6-6|0-0-0-0-0-0-2-2-2-3-3-3/8-8-8-8-8-8|

Pre-Verse 2x


Verse 4x


Chorus 3x

Fill 1x
Gb: |-----------------|
Db: |-----------------|
Ab: |-----------------|
Eb: |0--1-0-1-0-1--(1)]


Solo 3 Play this through the whole solo until the last measure
Gb: |-----------|
Db: |-----------|
Ab: |-----------|
Eb: |6-5-5-5-5-5|

The "Finally you can stop looking at this tab" riff 1x
Gb: |---------|
Db: |---------|
Ab: |---------|
Eb: |3-3-3-3/1|

Almost there ...

Sign in to get your own page with links to favourite songs and more. You are just one click away...

Login with Facebook Login with Google