Log in

One click and you are in

Login with Facebook Login with Google

Why sign up and log in

Guitar Tabs Explorer
Slayer bass tabs for God hates us all album

Bass tabs with lyrics

THERE ARE FOUR SONGS I COULDN'T FIND SO I AM SORRY FOR THAT BUT HERE ARE THE REST, HAVE FUN!

1: Darkness of Christ
2: Disciple
3: God Send Death
4: New Faith
5: Castdown
6: Threshold
7: Exile
8: Seven Faces
9: Bloodline
10: Deviance
11: War Zone
12: Here Comes the Pain
13: Payback

1: DARKNESS OF CHRIST
Riff 1:
|----------------|
|----------------|
|----------------|
|-2-3--0-0-0-0-0-|


Riff 2:
|--------------------|
|--------------------|
|--------------------|
|-3-2-0-3-0--0-0-0-0-|


Riff 3:
|-------------------------|
|-------------------------|
|-------------------------|
|-0-0-0-0-0---6-6-6-6-6-6-|

Riff 4:
|--------------|
|--------------|
|--------------|
|--6-6-6-6-6---|


Riff 5:
|--------------------|
|--------------------|
|--------------------|
|-2-3--0-0--1-2--0-0-|


Riff 6:
|----------------------------------|
|----------------------------------|
|----------------------------------|
|-2--5--4-4---1--4--3-3---0-1-0--4-|


2: DISCIPLE


Intro:
G|-------------------------------------------------------------------------|
D|-------------------------------------------------------------------------|
A|-------------------------------------------------------------------------|
E|---3--0----3--6---3--0---------------------------------------------------|

0:02-0:12
G|-------------------------------------------------------------------------|
D|-------------------------------------------------------------------------|
A|-------------------------------------------------------------------------|
E|-0-0-0-0-0-0-0-0-0-0-0-0-0-0-0-0-0-0-0-0-0-0-0-0-0-0-0-0-0-0-0-0-0-0-0-0-|

or this one (im not 100%, i think one might be live and the other recorded)

G|-------------------------------------------------------------------------|
D|----------9-8-----------------9-8-----------------9-8-------------9-8----|
A|----7---------7--------7----------7---------7---------7-------7-------7--|
E|--0------------------0--------------------0-----------------0------------|

0:12-0:14
G|---------------------------------------------------------------------------|
D|---------------------------------------------------------------------------|
A|----7------6------5--------------------------------------------------------|
E|---------------------------------------------------------------------------|

0:14-0:29 (verse)
G|-------------------------------------------------------------------------|
D|-------------------------------------------------------------------------|
A|-------------------------------------------------------------------------|
E|----3--2---0-------3--4--3--2--0---------3--2---0-------3--4--3--2--0----|

0:29-0:34
G|-------------------------------------------------------------------------|
D|-------------------------------------------------------------------------|
A|-------------------------------------------------------------------------|
E|----------0-0-0-----------0-0-0-----------0-0-0-----------0-0-0----------|

0:34-0:40
G|-------------------------------------------------------------------------|
D|-------------------------------------------------------------------------|
A|-------------------------------------------------------------------------|
E|--1--4--0-0-0-0-0-0--1--4--0-0-0-0-0-0--1--4--0-0-0-0-0-0--1--4--0-0-0---|

0:40-0:55
G|-------------------------------------------------------------------------|
D|-------------------------------------------------------------------------|
A|-------------------------------------------------------------------------|
E|----3--2---0-------3--4--3--2--0---------3--2---0-------3--4--3--2--0----|

0:55-1:05
G|-------------------------------------------------------------------------|
D|-------------------------------------------------------------------------|
A|-------------------------------------------------------------------------|
E|----------0-0-0-----------0-0-0-----------0-0-0-----------0-0-0----------|

1:05-1:16 back to this first one which im not sure of once again
G|-------------------------------------------------------------------------|
D|-------------------------------------------------------------------------|
A|-------------------------------------------------------------------------|
E|-0-0-0-0-0-0-0-0-0-0-0-0-0-0-0-0-0-0-0-0-0-0-0-0-0-0-0-0-0-0-0-0-0-0-0-0-|

or

G|-------------------------------------------------------------------------|
D|----------9-8-----------------9-8-----------------9-8-------------9-8----|
A|----7---------7--------7----------7---------7---------7-------7-------7--|
E|--0------------------0--------------------0-----------------0------------|

1:16-1:25 Guitar Solo
G|-------------------------------------------------------------------------|
D|-------------------------------------------------------------------------|
A|-------------------------------------------------------------------------|
E|--1--4--0-0-0-0-0-0--1--4--0-0-0-0-0-0--1--4--0-0-0-0-0-0--1--4--0-0-0---|

1:25-1:27           1:28
G|-------------------------------------------------------------------------|
D|-------------------------------------------------------------------------|
A|-------------------------------------------------------------------------|
E|--1~~~~~~~~~~~~~~~~0-----------------------------------------------------|

1:28-1:33 (Guitar Breakdown) i.e play nothing

1:33-1:38
G|-------------------------------------------------------------------------|
D|-------------------------------------------------------------------------|
A|-------------------------------------------------------------------------|
E|--3--3--------3--3--3--6-------------------------------------------------|

1:38-1:56
G|-------------------------------------------------------------------------|
D|----------------------------------x3-------------------------------------|
A|-------------------------------------------------------------------------|
E|--0-0-0-0-0-0-0-0-0-0-12-12-12-12-----5-5-5-5-4-4-4-4-0-0-0-0-1-1-1-1----|

1:56-2:06
G|-------------------------------------------------------------------------|
D|-------------------------------------------------------------------------|
A|-------------------------------------------------------------------------|
E|--0-0-0-0-0-0-0-0---3-3-3-3-3---2-2-2-2---0-0---2-2----3-3---6-6---5-5---|

2:06-2:20
G|-------------------------------------------------------------------------|
D|-------------------------------------------------------------------------|
A|-------------------------------------------------------------------------|
E|---3p0-0-0-0--3p0-0-0-0--3p2-2-2-2---3p0-0-0-0--3p0-0-0-0---3h6-6-6-6----|

2:20-2:29
G|-------------------------------------------------------------------------|
D|-------------------------------------------------------------------------|
A|-------------------------------------------------------------------------|
E|--1--4--0-0-0-0-0-0--1--4--0-0-0-0-0-0--1--4--0-0-0-0-0-0--1--4--0-0-0---|

2:29-2:39
G|-------------------------------------------------------------------------|
D|-------------------------------------------------------------------------|
A|-------------------------------------------------------------------------|
E|--0-0-0-0-0-0-0-0---3-3-3-3-3---2-2-2-2---0-0---2-2----3-3---6-6---5-5---|

2:39-2:52
G|-------------------------------------------------------------------------|
D|-------------------------------------------------------------------------|
A|-------------------------------------------------------------------------|
E|----0----3---2-----0---2---3-----6---5~~~~-------------------------------|

2:52-3:31
G|-------------------------------------------------------------------------|
D|-------------------------------------------------------------------------|
A|-------------------------------------------------------------------------|
E|-3-3-3-6-6-6-2-2-2-2-2-2--2-3-3-3-6-6-6-5-5-2-2-2--3-3-3-6-6-6-5-5-6-6-2-|

3:31-3:35
G|-------------------------------------------------------------------------|
D|-------------------------------------------------------------------------|
A|-------------------------------------------------------------------------|
E|----2-2-2-2-2-2-2-2->2<\-------------------------------------------------|


3: GOD SEND DEATH


Riff: 1
G---------------------------------------------|
D---------------------------------------------|
A---------------------------------------------|
E-1-1-1-0~~~~~----4-3-1-------4-3-1-3-4-8-7-4-|


Riff: 2
G----------------------------------------|
D----------------------------------------|
A----------------------------------------|
E-00-00-00-00-00-00-00-00-00-00-00-00-00-|


Riff: 3
G-----------------------------------|
D-----------------------------------|
A-----------------------------------|
E-0-0-0-0-0-0-0-0-0-0-0-0-0-0-0-0-0-|


Riff: 4
G------------------|
D--------7-8-------|
A------------9-8-5-|
E-0-0-0------------|


Riff: 5
G---------------------------------|
D---------------------------------|
A---------------------------------|
E-3-3-3-0-0-0-2-2-6-6-6-6-5-5-5-5-|


Riff: 6
G--------------------------------------------------------|
D--------------------------------------------------------|
A----4-----3---------------------------------------------|
E-222--222--222-5-2222--1111--6666--5555-3-2-0-2-0-2-0-2-|


Riff: 7
G-------|
D-------|
A-------|
E-4-3-1-|


4: NEW FAITH


Main Riff:
G:------------------|
D:------------------|
A:------------------|
D:-00000000-1-02-01-|

Bridge1/2:
G:----------------------|
D:----------------------|
A:----------------------|
D:-03003003200300300320-

After bridge 2:
G:-----------------|
D:-----------------|
A:-----------------|
D:-0-3-2-1-0-1-2-3-|


Outro:
G:-----------------|
D:-----------------|
A:-----------------|
D:-0-1-321-0-1-321-|


5: CASTDOWN

I don't know


6: THRESHOLD


Intro:
|----------------------------|
|----------------------------|
|----------------------------|
|-3-2-0-1-0-2-1-0-2-1-0--3-3-|


Verse:
|---------------------------------------------------------------|
|---------------------------------------------------------------|
|---------------------------------------------------------------|
|-2-1-0-1-0--2-1-0--2-1-0--1-0-1-2-1-0--2-1-0--2-1-0-1-0--1-0-1-|


Pre-Chorus:
|---------------------|
|---------------------|
|---------------------|
|-0-0-1-0-0-1-0-0-1-1-|


Chorus:
|-------------------|
|-------------------|
|-------------------|
|-0-0-0-0-1-0-0-0-1-|


Verse 2:
|------------------------------------|
|------------------------------------|
|------------------------------------|
|-3-2-0-1-0--2-1-0--2-1-0-1-0--1-3-0-|


7: EXILE

I dont know.


8: SEVEN FACES

I don't know


9: BLOODLINE


Riff 1 (00:15) X2
Gb|-------------|
Db|-------------|
Ab|-------------|
Eb|--0-2-3-1-0--|


Riff 2 (00:20) X3
Gb|---------------------------------|
Db|---------------------------------|
Ab|---------------------------------|
Eb|--0-0-0-0-3-3-3-3-2-2-2-0-2-3-1--|


Riff 3 (00:36) x4
Gb|---------------------------|x3 Then |----------------------|
Db|---------------------------|        |----------------------|
Ab|---------------------------|        |----------------------|
Eb|--1-0-0-0-1-0-0-0-0-1-0-0--|        |--1-0-0-0--0-2-4-3-6--|


Riff 4 Chourus (01:09) x2
Gb|-------------------------------------|
Db|-------------------------------------|
Ab|-------------------------------------|
Eb|--0-0-3-3-2-2-1-1-0-0-3-3-2-0-2-3-1--|


Riff 5 (01:25) x4
Gb|----------------------------------------------|
Db|----------------------------------------------|
Ab|----------------------------------------------|
Eb|--1-0-0-0-1-0-0-0-0-1-0-0-1-0-0-0--0-2-4-3-6--|


Riff 4 Chourus (01:41) x2


Riff 6 (01:58) x3
Gb|---------------------|
Db|---------------------|
Ab|----1-3-2-1-2-5-4-3--|
Eb|--0------------------|


Riff 7 (02:04) x8
Gb|---------------------|
Db|---------------------|
Ab|---------------------|
Eb|--0-1-3-2-1-2-5-4-3--|


Riff 8 (02:20) x8
Gb|-----------------------|
Db|-----------------------|
Ab|-----------------------|
Eb|--0-3-6-5-0-0-3-5-6-5--|


Riff 9 (02:36) x2
Gb|--------------------------|
Db|--------------------------|
Ab|--------------------------|
Eb|-3-2-2-2-3-2-2-2-2-3-2-2--|


Riff 1 (02:46) x1


Riff 4 Chourus (02:48) x4


10: DEVIANCE


Riff: 1
G---------------------------------------------------------------|
D---------------------------------------------------------------|
A---------------------------------------------------------------|
E-0-0-0-1-1-1-0-0-0-1-1-1-4-4-3-3-1-1-1-4-4-4-3-3-3-0-0-1-1-1-1-|


Riff: 2
G---------------------------------|
D---------------------------------|
A---------------------------------|
E-4-4-4-4-4-4-4-4-3-3-3-3-3-3-3-3-|


11: WAR ZONE


INTRO
|------------||----------||---------|
|------------||----------||---------|
|------------||----------||---------|
|7-6-5-7-6-5-||7-6-5-----||10---9---|


RIFF A
|------------------||------||------|
|------------------||------||------|
|------------------||------||------|
|0-6-5-0-5-4-0-4-3-||0-3-2-||0-1---|


RIFF B
|------------------------|
|------------------------|
|------------------------|
|0-6-5-0-5-4-0-4-3-0-3-2-|


CHORUS A
|------------||----------||----------|
|------------||----------||----------|
|------------||----------||----------|
|7-6-5-7-6-5-||7-6-5-----||10----9---|


CHORUS B
|------------------------------------||----------------||----------|
|------------------------------------||----------------||----------|
|------------------------------------||----------------||----------|
|7-6-5-7-6-5-7-6-5-7-6-5-7-6-5-7-6-5-||7-6-5-10--9--8--||10----9---|


VERSE A
|--------------------------------|
|--------------------------------|
|--------------------------------|
|0-1-0-0-0-0-0-0-0-1-0-0-3-0-1---|


VERSE B
|----------------------------------------------------------------|
|----------------------------------------------------------------|
|----------------------------------------------------------------|
|0-1-0-0-0-0-----0-1-0-0-0-0-----0-1-0-0-0-0-----0-1-0-0-3-0-1---|


VERSE C
|--------------------------------|
|--------------------------------|
|--------------------------------|
|0-1-0-0---------0-1-0-0-3-0-1---|


OUTRO
|----------------------------------------------------------------|x2
|----------------------------------------------------------------|
|----------------------------------------------------------------|
|0-1-0-0-0-0-----0-1-0-0-0-0-----0-1-0-0-0-0-----0-1-0-0-0-0-----|


12: HERE COMES THE PAIN

I don't know


13: PAYBACK


Intro:
G------------------------------------------------------|
D------------------------------------------------------|
A------------------------------------------------------|
E-(0)--------------------------------------------------|

G------------------------------------------------------|
D------------------------------------------------------|
A------------------------------------------------------|
E-0-------------1-------------2-------------2-3--0-1-1-|

G------------------------------------------------------|
D------------------------------------------------------|
A------------------------------------------------------|
E-0-0-0-0-0-0-0-1-0-0-0-0-0-0-2-0-0-0-0-0-0-2-3--0-1-1-|

G-------------------------------------------------------------------|
D-------------------------------------------------------------------|
A-------------------------------------------------------------------|
E-0000000-1-000000-2-0000002-3--0-1-1-2-3-0-1-1-2-3-0-1-1-0-1-5-(5)-|

Between Bridge & Verse:
G----------------------------|
D----------------------------|
A----------------------------|
E-3-2-0--3-2-0--3-2-0--3-2-0-|


Verse:
G----------------------------------------------------------------------|
D----------------------------------------------------------------------|
A----------------------------------------------------------------------|
E-0--0-0-0-0-0-0--4-4-4-4-4-4--0-0-0-0-0-0-0--4-4-4-4-4-4--3-3-3-3-3-3-|

G-------------------------------------------------------------------|
D-------------------------------------------------------------------|
A-------------------------------------------------------------------|
E-0-0-0-0-0-0-0--1-1-1-1-1-1-1--0-0-0-0-0-0--4-4-4-4-4-4--3-3-3-3-3-|

Between Bridge & Chorus:
G----------------------|
D----------------------|
A----------------------|
E-0-0-0-0-0--3-2-0-2-0-|


Chorus:
G-------------------------------------------|
D-------------------------------------------|
A----------------------1-1-1-1--0-0-0-0-0-0-|
E-0-0-0-0-0-0--3-3-3-3----------------------|


Verse 2:
G----------------------------------------------------|
D----------------------------------------------------|
A----------------------------------------------------|
E-0--0-0-0-0-0-0--1--0-0-0-0-0-0--2-0-2-0-4--3--0--2-|

G-------------------------------------------------------|
D-------------------------------------------------------|
A-------------------------------------------------------|
E-0--0-0-0-0-0-0--1--0-0-0-0-0-0-2-0-2-0-4--3--0--2-0h2-|


Ending:
G-----------------------------------------------|
D-----------------------------------------------|
A-----------------------------------------------|
E-2--4--0--2--4-0-0-0-0-0-0-0-0-0-2--4--0--2--4-|


I am SOOOOOOOOOOOO sorry i coudn't find them four songs so pleeeeeease give it a good
and again i am so so so so so sorry!

Almost there ...

Sign in to get your own page with links to favourite songs and more. You are just one click away...

Login with Facebook Login with Google