Log in

One click and you are in

Login with Facebook Login with Google

Why sign up and log in

Guitar Tabs Explorer
Slayer bass tabs for Flesh storm

Bass tabs

tuning Ed


intro fig 1 2X
|-----------------|
|-----------------|
|-----------------|
|-4\3010--01--03--|
intro fig 2
|------------------------------------|
|------------------------------------|
|------------------------------------|
|-4\301-000000000-01-000000-03-000000|

|-------------------------------|
|-------------------------------|
|-------------------------------|
|-4\301-00000000-01-000000-03134|


verse 1
|----------------------------------------------------------------|
|----------------------------------------------------------------|
|----------------------------------------------------------------|
|-1-11111-1-11111-1-11111-2-22222-1-11111-1-11111-1-11111-3-33333|

|---------------------------------------------------------------------|
|---------------------------------------------------------------------|
|----------------------------------------------------------------3--2-|
|-1-11111-1-11111-1-11111-2-22222-1-11111-1-111111-1-11111-1--4-------|


bridge
|-----------------------------------------------------------|
|-----------------------------------------------------------|
|------------------------------------------------------3--2-|
|-3-33333-6-33333-6-33333-4-44444-3-3333-6-33333-3--4-------|

verse 2
|-----------------------------------------------------------|
|-----------------------------------------------------------|
|-----------------------------------------------------------|
|-1-11111-1-11111-1-11111-2-22222-1-11111-1-11111-1--4--3--0|

|-----------------------------------------------------------|
|-----------------------------------------------------------|
|-----------------------------------------------------------|
|-1-11111-1-11111-1-11111-3-33333-1-11111-1-11111-1--4--3--1|


chorus
|----------------------------------------------------|
|------------------------------------------------6---|
|------2--------2---78710-------2---------2---78----8|
|-0000-----0000------------0000-----0000-------------|

|----------------------------------------------------|
|----------------------------------------------------|
|-----2--------2----------------2--------2----8--7---|
|0000-----0000-------------0000-----0000-------------|

|-----------------------------------------------|
|-----------------------------------------6-----|
|---------------78710------------------78---8---|
|00000000000000---------00000000000000----------|

|-----------------------------------------------|
|-----------------------------------------------|
|---------------78710------------------8---7----|
|00000000000000---------00000000000000----------|

play under solo 1 3X
|-------------------------------------|
|-------------------------------------|
|-------------------------------------|
|4\301-0000000000-01-0000000-03-000000|

|---------------------------------|
|---------------------------------|
|---------------------------------|
|4\301-0000000000-01-0000000-03134|

replay from verse 1 to verse 2


chorus 2
|----------------------------------------------------|
|------------------------------------------------6---|
|-----2--------2---78710-------2---------2----78---8-|
|0000----00000------------0000------0000-------------|

|----------------------------------------------------|
|----------------------------------------------------|
|-----2-------2----78710------2--------2----8---7----|
|0000----0000-------------0000-----0000--------------|

|----------------------------------------|
|-----------------------------------6----|
|-------------78710--------------78---8--|
|000000000000-------000000000000---------|

|-------------------------------------------|
|-------------------------------------------|
|--------------78710------2--------2--------|
|0000000000000-------0000-----0000------1--4|

fig 3
|------------------------|
|------------------------|
|------------------------|
|3p0-00-4\3-00-3p0-000000|

fig4
|----------------------------|
|----------------------------|
|----------------------------|
|3p0-00-4\3-00-6666666666666-|

replay fig 1

play under solo 2
4X
|---------------------------------|
|---------------------------------|
|---------------------------------|
|4\301-00000000-01-00000-03-000000|

|----------------------------------------------------------------|
|----------------------------------------------------------------|
|----------------------------------------------------------------|
|-3-33333-6-33333-6-33333-4-44444-3-33333-6-33333-6-33333-4-44444|

|----------------------------------------------------------------|
|----------------------------------------------------------------|
|--------------------------------------------------------3--2----|
|-3-33333-6-33333-6-33333-4-44444-3-33333-6-33333--3--4----------|

|----------------------------------------------------------------|
|----------------------------------------------------------------|
|--------------------------------------------------------3--2----|
|-3-33333-6-33333-6-33333-4-44444-3-33333-6-33333--3--4----------|

interlude 2x
|--------------------------------------------|
|-------------------------------67-----------|
|---------78---7---878-------------7810------|
|-00000000----0--0------00000000---------871-|

|--------------------------------------------|
|----------------------------------67--------|
|----------78---8---878--------87----7810----|
|-00000000----0---0-----000000-----------871-|

interlude 2
|-------------------------|
|-------------------------|
|-------------------------|
|-1p0-000000-1p0-00-3\1-00|

|-------------------------|
|-------------------------|
|-------------------------|
|-1p0-00-3\1-000000-1p0-00|

|----------------------|
|----------------------|
|----------------------|
|-1p0-00-66666666666666|

rest


outro
replay chorus 2

|--------|
|--------|
|--------|
|-4\3010-|

please rate

Almost there ...

Sign in to get your own page with links to favourite songs and more. You are just one click away...

Login with Facebook Login with Google