Log in

One click and you are in

Login with Facebook Login with Google

Why sign up and log in

Guitar Tabs Explorer
Slayer guitar tabs for Exile

Guitar tabs

Slayer

Exile (solo)

god hates us all

transcribed by Rudy Guzman

guzman_84@hotmail.com

  solo
        bar/\/\/\/\/\/\/\/\/\/\/\/\/\/\/\/\/\/\/\/\/\/\/\/\/\/\/\/\/\ bar
Eb|-20b-19-17h20p17----17-------------------------------------------------|
Bb|-----------------20-----20p17-20p17--18p15-17p14-16p13-15p12-14p11-----|
F#|--------------------------------------------------------------------0--|
C#|-----------------------------------------------------------------------|
G#|-----------------------------------------------------------------------|
C#|-----------------------------------------------------------------------|


Eb|-------4-5-4-5-7-5-4-----------------------------------12-13-15-13-12---|
Bb|7/17\-----------------7-5-4-5-7/--12-13-15-13-12-13-15----------------15|
F#|7/17\-------------------------------------------------------------------|
C#|------------------------------------------------------------------------|
G#|------------------------------------------------------------------------|
C#|------------------------------------------------------------------------|


Eb|-----------------------------------------------------------------------|
Bb|12-13-15-13-12---------------------------------------------------------|
F#|---------------14-12-11-14-----------9~~~-8~~---------------------9-8--|
C#|---------------------------14-12-11-----------10--9~~----------10-----9|
G#|------------------------------------------------------11-10-11---------|
C#|-----------------------------------------------------------------------|

Eb|-----------------------------------------------------------------------|
Bb|-----------------------------------------------------------------------|
F#|------------------------------------------------------1415141514-------|
C#|-----------------1415171514------------14151415171514------------171514|
G#|1415141517151417------------1715141517---------------------------------|
C#|-----------------------------------------------------------------------|

                                                                 pick slide
Eb|-------------------------------------------------------------------------|
Bb|--------------------1415141514-----------------17\--------------X\----13\|
F#|-----14151715141517------------17151415171514--16\--------------X\----13\|
C#|1517---------------------------------------------------------------------|
G#|-------------------------------------------------------------------------|
C#|-----------------------------------------------------7~~~-6~~~-----------|

    wah               wah
Eb|-----|------------|----|-------------------------------------------------|
Bb|/17--|-----7-7-7--|/17-|-22-22-22-22-22-21-21-21-21-1919191919--77777----|
F#|/17--|-10---------|/17-|-21-22-21-21-21-21-21-21-21-1919191919-------7777|
C#|-----|------------|----|-------------------------------------------------|
G#|-----|------------|----|-------------------------------------------------|
C#|-----|------------|----|-------------------------------------------------|


Eb|----------------------------------------------------------------------|
Bb|-------------------------------------------------------------12-13-15-|
F#|--7-------------------------------------------------12-13-15----------|
C#|9-------------------------------9-10-12-13-12-13-15-------------------|
G#|------------------------9-10-12---------------------------------------|
C#|-----9-10-12-10-9-10-12-----------------------------------------------|

                                         2 times     bar
Eb|12-13-15-12-14-17-12-14-17-12-14-17-|-14-16-19-|------12-14-17-14-12-|
Bb|------------------------------------|----------|---------------------|
F#|------------------------------------|----------|--0------------------|
C#|------------------------------------|----------|---------------------|
G#|------------------------------------|----------|---------------------|
C#|------------------------------------|----------|---------------------|


Eb|13-15-18-15-13-14-16-19-16-14-15-17-20-17-15-16-18-21-18-16-17-19-22-19|
Bb|-----------------------------------------------------------------------|
F#|-----------------------------------------------------------------------|
C#|-----------------------------------------------------------------------|
G#|-----------------------------------------------------------------------|
C#|-----------------------------------------------------------------------|


Eb|17-18-21-18-21b(20b)~~~-AH--22b----22b---------------------------------|
Bb|--------------------------------21-------------------------------------|
F#|-----------------------------------------------------------------------|
C#|-----------------------------------------------------------------------|
G#|-----------------------------------------------------------------------|
C#|-----------------------------------------------------------------------|

Almost there ...

Sign in to get your own page with links to favourite songs and more. You are just one click away...

Login with Facebook Login with Google