Log in

One click and you are in

Login with Facebook Login with Google

Why sign up and log in

Guitar Tabs Explorer
Slayer bass tabs for Divine intervention

Bass tabs

Band- Slayer
Song- Divine Intervention


Tuning: Half Step Down

Riff 1:
|--------------------------------|--------------------------------|
|--------------------------------|--------------------------------|
|7-------7-----7---7-7-7-7-7-7---|7-------7-----7---7-7-7-7-7-0---|
|--0-0-0---0-0-----------------0-|--0-0-0---0-0-----------------0-|


Riff 2:
|--------------------------------|--------------------------------|
|--------------------------------|--------------------------------|
|7-------7---7-7---7-7-7-7-7-7---|7-----7-7-----7---7-7-7-7-7-0---|
|--0-0-0---0-------------------0-|--0-0-----0-0-----------------0-|


Riff 2:
|--------------------------------------------|
|--------------------------------------------|
|------------------------------------7-7-7-7-|
|0-0-0-0-0-0-0-0-0-0-0-0-0-0-0-0-0-0---------|


|--------------------------------------------|
|--------------------------------------------|
|------------------------------------7-7-7-0-|
|0-0-0-0-0-0-0-0-0-0-0-0-0-0-0-0-0-0---------|

Riff 3:
|-------------------------------|--------------------------------|
|-------------------------------|--------------------------------|
|----7--------------------------|--------------------------------|
|-------------------------------|--------------------------------|

|---------------------------------|---------------------------------|
|---------------------------------|---------------------------------|
|---------------------------------|---------------------------------|
|-0-------------------------------|-0-------------------------------|

Play this Bar x2
|--------------------------------|--------------------------------|
|--------------------------------|--------------------------------|
|--------------------------------|--------------------------------|
|0-----0-0-------0-----0-0-0-----|0-----0-0-------0-----0-0-0-0---|


Riff 4:
|--------------------------------|---------------------------------|
|--------------------------------|---------------------------------|
|-7//----------------------------|---------------------------------|
|--------------------------------|-0-------------------------------|


Riff 5:
|------------------------------------------------|
|------------------------------------------------|
|------------------------------------------------|
|1-1-1-1-1-1-2-1-1-1-1-1-1-1-1-1-1-1-1-1-1-3-5-6-|
				   1...  2...
|------------------------------------ ------| ------|
|------------------------------------ ------| ------|
|------------------------------------ ------| ------|
|1-1-1-1-1-1-1-1-1-1-1-1-1-1-1-1-1-1- 4-3-2-| 7-6-5-|


Riff 6:
|----------------|----------------|
|----------------|----------------|
|----------------|----------------|
|/4--222222222222|/4--222222222222|
			   1...  2...
|----------------|---------- ------| ------|
|----------------|---------- ------| ------|
|----------------|---------- ------| ------|
|/5--333333333333|/6--4444-- 7-6-5-| 3-2-1-|

								 |5/9 Only|
|--------------------------------|--------------------------------|--------|
|--------------------------------|--------------------------------|--------|
|--------------------------------|--------------------------------|--------|
|0-0-0-0-0-0-0-0-0-0-7---6-0-0-0-|0-0-0-0-8-------7~~~~~~~3-------|2~~~~~~~|

|----------------|----------------|
|----------------|----------------|
|----------------|----------------|
|/4--2222-2---222|/4--22222----222|
			   1...  2...
|----------------|---------- ------| ------|
|----------------|---------- ------| ------|
|----------------|---------- ------| ------|
|/5--3333-----333|/6--4444-- 7-6-5-| 3-2-1-|


Riff 7:
|1...2...3...           4...
|--------------------------------|--------------------------------|
|--------------------------------|--------------------------------|
|--------------------------------|--------------1-----0-----------|
|0-------------------------------|0-------------------------0-----|

Almost there ...

Sign in to get your own page with links to favourite songs and more. You are just one click away...

Login with Facebook Login with Google