Log in

One click and you are in

Login with Facebook Login with Google

Why sign up and log in

Guitar Tabs Explorer
Slayer bass tabs for Disciple

Bass tabs

slayer
Disciple
i play it in D#,A#,D#,G#


Intro x1
|---------------|
|---------------|
|---------------|
|-3-0--3-6--5-0-|
riff 1
|---------------|
|---------9-----|
|-----------8-7-|
|-000-000-------|


riff 2
|------------|
|------------|
|------------|
|-8---7---6--|


verse pt1
|-----------------|
|-----------------|
|-----------------|
|-3-3-2-0-3-4-3-0-|


Chorus
|------------------------------------|
|------------------------------------|
|------------------------------------|
|-000-000--000-000--000-000--000-000-|

verse pt2
|-----------------|
|-----------------|
|-----------------|
|-1-1/4-4-0-0-0-0-|


verse pt1


chorus 2
|------------------------------------------------------------------------|
|------------------------------------------------------------------------|
|------------------------------------------------------------------------|
|-000-000--000-000--000-000--000-000--000-000--000-000--000-000--000-000-|


riff 1


verse pt 2 (under the solo)

fill
|---|----------------------------|
|---|----------------------------|
|---|----------------------------|
|-1~|------3---3------3--3--3--6-|


riff 3
|--------------------------------------|
|--------------------------------------|
|--------------------------------------|
|-0-0-0-0-0-0-0-0-0-0-0-0--12-12-12-12-|


riff 4
|---------------------|
|---------------------|
|---------------------|
|-5555-4444-0000-1111-|


riff 3


riff 4


riff 5
|--------------------------------------|
|--------------------------------------|
|--------------------------------------|
|-0000-3333-2222--00-22-3333-7777-6666-|


riff 6
|--------------------------------------------------|
|--------------------------------------------------|
|--------------------------------------------------|
|-3h-000-3h-000-3h-222222--3h-000-3h-000-3h-666666-|


verse pt 2


riff 5


riff 6
|----------------------|
|----------------------|
|----------------------|
|-0--3--2--0-2-3--7--6-|


outro
|-----------------------------|-------------------------------|
|-----------------------------|-------------------------------|
|-----------------------------|-------------------------------|
|-3-3-3-6-6-6-2-2-2-2-2-2-2-2-|-3-3-3-6-6-6-5-5-5-2-2-2-2-2-2-|

|-----------------------------------|----------------------------|
|-----------------------------------|----------------------------|
|-----------------------------------|----------------------------|
|-3-3-3-6-6-6-5-5-5-6-6-6-2-2-2-2-2-|3-3-3-6-6-6-2-2-2-2-2-2-2-2-|

Thats it, peice all the riffs together yoursevles, shouldn't be too hard

Almost there ...

Sign in to get your own page with links to favourite songs and more. You are just one click away...

Login with Facebook Login with Google