Log in

One click and you are in

Login with Facebook Login with Google

Why sign up and log in

Guitar Tabs Explorer
Slayer guitar tabs for Diabolus in musica album

Guitar tabs

----------------------------------------------------------------------------
	       Diabolus In Musica Album - Slayer
----------------------------------------------------------------------------
Tabbed by: Brack

1. Bitter Peace

Tuning A chord diagramDbDb


 RIFF 1 INTRO x4

|KING
|-------------------------------------|
|-------------------------------------|
|-------------------------------------|
|-------------------------------------|
|-2---4---3---2---4---3---4---7-7-6---|
|-0---2---1---0---2---1---2---5-5-4---|
|                                  x
|
|HANNEMAN
|-------------------------------------|
|-------------------------------------|
|-------------------------------------|
|-------------------------------------|
|-------------------------4---7-7-6---|
|-------------------------2---5-5-4---|
                                   x


 RIFF 1A INTRO x4

|-------------------------------------|
|-------------------------------------|
|-------------------------------------|
|-------------------------------------|
|-2---4---3---2---4---3---4---7-7-6---|
|-0---2---1---0---2---1---2---5-5-4---|
                                   x


 RIFF 2 INTRO x1

|---------------------------------|---------------------------------|
|---------------------------------|---------------------------------|
|---------------------------------|---------------------------------|
|---------------------------------|---------------------------------|
|-5---8---7---5---8---7---6---3---|-5---8---7---5---8---7---6---3---|
|-3---6---5---3---6---5---4---1---|-3---6---5---3---6---5---4---1---|


|---------------------------------|---------------------------------|
|---------------------------------|---------------------------------|
|---------------------------------|---------------------------------|
|---------------------------------|---------------------------------|
|-5---8---7---5---8---7---6---3---|-5---8---7---5---------5-4-------|
|-3---6---5---3---6---5---4---1---|-3---6---5---3---3-5-6-----5-4-1-|



 RIFF 1A INTRO x3


 RIFF 2A INTRO x1

|---------------------------------|---------------------------------|
|---------------------------------|---------------------------------|
|---------------------------------|---------------------------------|
|---------------------------------|---------------------------------|
|-5---8---7---5---8---7---6---3---|-5---8---7---5---8---7---6---3---|
|-3---6---5---3---6---5---4---1---|-3---6---5---3---6---5---4---1---|


|---------------------------------|---------------------------------|
|---------------------------------|---------------------------------|
|---------------------------------|---------------------------------|
|---------------------------------|---------------------5-----------|
|-5---8---7---5---8---7---6---3---|-5---8---7---5-----4---4-3-------|
|-3---6---5---3---6---5---4---1---|-3---6---5---3---3---------5-4-1-|



 RIFF 1A INTRO x4


 FILL 1

|---------------------------------|---------------------------------|
|---------------------------------|---------------------------------|
|---------------------------------|---------------------------------|
|---------------------------------|---------------------------------|
|-2-------------------------------|---------------------------------|
|-0-------------------------------|---------------------------------|



 BASS FILL


 RIFF 3 BREAK x3

|KING
|-------------------------|
|-------------------------|
|-------------------------|
|--------7-5--------------|
|-2------7-5---2-3--------|
|-000000-------0-1--------|
|  .....
|
|HANNEMAN
|-------------------------|
|-------------------------|
|-------------------------|
|-------------------------|
|-2------------2-33333333-|
|-0------------0-11111111-|
   x


 RIFF 4 BRIDGE x1

|KING
|--------------------------------------------------------------------|
|--------------------------------------------------------------------|
|--------------------------------------------------------------------|
|--------------------------------------------------------------------|
|-2--------8-7b^^----------10-8b^^-----------8-7b^^--5-7b^^--2-3-----|
|-0-000000---------0-000000---------0-000000-----------------0-1-----|
|   ......         . ......         . ......
|
|HANNEMAN
|--------------------------------------------------------------------|
|--------------------------------------------------------------------|
|--------------------------------------------------------------------|
|--------------------------------------------------------------------|
|-2----------------------------------------------------------2-3-----|
|-0----------------------------------------------------------0-1-----|
   x


|KING
|--------------------------------------------------------------------|
|--------------------------------------------------------------------|
|--------------------------------------------------------------------|
|--------------------------------------------------------------------|
|-2--------8-7-------------10-8--------------8-7-----5-7-----2-3-----|
|-0-000000-8-7-----0-00000010-8-----0-000000-8-7-----5-7-----0-1-----|
|   ......         . ......         . ......
|
|HANNEMAN
|--------------------------------------------------------------------|
|--------------------------------------------------------------------|
|--------------------------------------------------------------------|
|--------------------------------------------------------------------|
|-2--------8-7-------------10-8--------------8-7-----5-7-----2-3-----|
|-0--------8-7-------------10-8--------------8-7-----5-7-----0-1-----|
   x             x                x


 RIFF 5 VERSE x1

|------------------------------------------------------|
|------------------------------------------------------|
|------------------------------------------------------|
|------------------------------------------------------|
|----------6----------8----------6-----5-------3-------|
|-00000000---00000000---00000000---000-3333333-1111111-|
  ........   ........   ........   ... ....... .......


|------------------------------------------------------|
|------------------------------------------------------|
|------------------------------------------------------|
|------------------------------------------------------|
|----------6----------8----------6-----5-7-----2-3-----|
|-00000000---00000000---00000000---000-5-7-----0-1-----|
  ........   ........   ........   ...


|------------------------------------------------------|
|------------------------------------------------------|
|------------------------------------------------------|
|------------------------------------------------------|
|----------6----------8----------6-----5-------3-------|
|-00000000---00000000---00000000---000-3333333-1111111-|
  ........   ........   ........   ... ....... .......


|------------------------------------------------------|
|------------------------------------------------------|
|------------------------------------------------------|
|------------------------------------------------------|
|----------6----------8----------6-----5-------2-3-----|
|-00000000---00000000---00000000---000-3333333-0-1-----|
  ........   ........   ........   ... .......


 RIFF 6 CHORUS x1

|---------------------------------|---------------------------------|
|---------------------------------|---------------------------------|
|---------------------------------|---------------------------------|
|---------------------------------|---------------------------------|
|-------------------------4-3-2---|-------------------------5-4-3---|
|-3-2-0-2-3-2-0-2-3-2-0-2-------2-|-3-2-0-2-3-2-0-2-3-2-0-2-------2-|
  . . . . . . . . . . . .           . . . . . . . . . . . .


|---------------------------------|
|---------------------------------|
|---------------------------------|
|---------------------------------|
|-------------------------6-5-4---|
|-3-2-0-2-3-2-0-2-3-2-0-2-------2-|
  . . . . . . . . . . . .


 RIFF 7 BREAK x3

|----------------------------|
|----------------------------|
|----------------------------|
|--------7-5---9101010101010-|
|-2------7-5---7-8-8-8-8-8-8-|
|-000000---------------------|
   .....


 FILL 2

|----------------------------|
|----------------------------|
|----------------------------|
|----------------------------|
|-6\5------6\5------5\4------|
|-4\333333-4\333333-3\222222-|
     .....    .....    .....


 RIFF 5A VERSE x1

|------------------------------------------------------|
|------------------------------------------------------|
|------------------------------------------------------|
|------------------------------------------------------|
|----------6----------8----------6-----5-------3-------|
|-00000000---00000000---00000000---000-3333333-1111111-|
  ........   ........   ........   ... ....... .......


|------------------------------------------------------|
|------------------------------------------------------|
|------------------------------------------------------|
|------------------------------------------------------|
|----------6----------8----------6-----5-7-----2-3-----|
|-00000000---00000000---00000000---000-5-7-----0-1-----|
  ........   ........   ........   ...


 RIFF 8 INTERLUDE x1

|----------------------------------|----------------------------------|
|----------------------------------|----------------------------------|
|----------------------------------|----------------------------------|
|----------------------------------|----------------------------------|
|-------------------------2--3-----|-------------------------5--3-----|
|-0-0-0-0-0-0-0-0-0-0-0-0-0--1-----|-0-0-0-0-0-0-0-0-0-0-0-0-3--1-----|
  . . . . . . . . . . . .            . . . . . . . . . . . .


|----------------------------------|----------------------------------|
|----------------------------------|----------------------------------|
|----------------------------------|----------------------------------|
|----------------------------------|----------------------------------|
|-------------------------2--3-----|----------5--3-----------2--3-----|
|-0-0-0-0-0-0-0-0-0-0-0-0-0--1-----|-0-0-0-0--3--1--0-0-0-0--0--1-----|
  . . . . . . . . . . . .            . . . .        . . . .


 RIFF 6A CHORUS x1

|---------------------------------|---------------------------------|
|---------------------------------|---------------------------------|
|---------------------------------|---------------------------------|
|---------------------------------|---------------------------------|
|-------------------------4-3-2---|-------------------------5-4-3---|
|-3-2-0-2-3-2-0-2-3-2-0-2-------2-|-3-2-0-2-3-2-0-2-3-2-0-2-------2-|
  . . . . . . . . . . . .           . . . . . . . . . . . .


|KING
|---------------------------------|---------------------------------|
|---------------------------------|---------------------------------|
|---------------------------------|---------------------------------|
|---------------------------------|---------4-------3---------------|
|-4-------5-------2-------4-------|-5-------2-------1-------3-------|
|-2-------3-------0-------2-------|-3-----------------------1-------|
|
|
|HANNEMAN
|---------------------------------|---------------------------------|
|---------------------------------|---------------------------------|
|---------------------------------|---------------------------------|
|---------------------------------|---------------------------------|
|---------------------------------|---------2222222-1111111---------|
|-2222222-3333333-0000000-2222222-|-3333333-----------------1111111-|
  ....... ....... ....... .......   ....... ....... ....... .......


 RIFF 4A BREAK x1

|KING
|--------------------------------------------------------------------|
|--------------------------------------------------------------------|
|--------------------------------------------------------------------|
|--------------------------------------------------------------------|
|-2--------8-7b^^----------10-8b^^-----------8-7b^^--5-7b^^--2-3-----|
|-0-000000---------0-000000---------0-000000-----------------0-1-----|
|   ......         . ......         . ......
|
|HANNEMAN
|--------------------------------------------------------------------|
|--------------------------------------------------------------------|
|--------------------------------------------------------------------|
|--------------------------------------------------------------------|
|-2--------8-7-------------10-8--------------8-7-----5-7-----2-3-----|
|-0--------8-7-------------10-8--------------8-7-----5-7-----0-1-----|
   x             x                x


 SOLO 1 HANNEMAN
  WAH__________ WAH_____________________________________________________
|---------------------------------12-14-15-14-12-11-12-14-12-11----------|
|-11b^^11111111-11-13-14-11-13-14-------------------------------14-13-11-|
|------------------------------------------------------------------------|
|------------------------------------------------------------------------|
|------------------------------------------------------------------------|
|------------------------------------------------------------------------|

  WAH_________
|---------------------161616-17----17----17------17-16-17----17----------|
|-------------------------------19----17----16^-----------19----17b^^\\--|
|-14-12-11-14b^^^^-------------------------------------------------------|
|------------------------------------------------------------------------|
|------------------------------------------------------------------------|
|------------------------------------------------------------------------|

  WAH__________________________________________                      A.H.
|-12-14-15-14-12--------------------------------------------------------------|
|----------------14-13-11-14-13-11------------------------14-13^--------------|
|----------------------------------14-12-11-14b^^------12---------12-14b^^^^--|
|-------------------------------------------------/14b------------------------|
|-----------------------------------------------------------------------------|
|-----------------------------------------------------------------------------|



 RIFF 9 x2 UNDER SOLO 1

|---------------------|---------------------|
|---------------------|---------------------|
|---------------------|---------------------|
|---------------------|---------------------|
|------3--------------|------3--------------|
|-2222---222222333333-|-2222---333333666666-|
  ....   ............   ....   ............


 FILL 3 UNDER SOLO 1

|----------------------|
|----------------------|
|----------------------|
|----------------------|
|------2-4-----2-4-----|
|-2222-0-2-----0-2-----|
  ....


 SOLO 2 KING

|-21-24-22-21-------21-24-22-21-------21-24-22-21----------20b^^----|
|-------------24-23-------------24-23-------------24-23-24-23b^^----|
|-------------------------------------------------------------------|
|-------------------------------------------------------------------|
|-------------------------------------------------------------------|
|-------------------------------------------------------------------|


|-21-24-22-21-------21-24-22-21----------20b^^--18b^^----15b^^--15b^^--|
|-------------24-23-------------24-23-24-23b^^--21b^^----18b^^--18b^^--|
|----------------------------------------------------------------------|
|----------------------------------------------------------------------|
|----------------------------------------------------------------------|
|----------------------------------------------------------------------|


|-15-18-16-15-------15-18-16-15-------15b^^--15b^^--15-18-16-15-------|
|-------------18-17-------------18-17-18b^^--18b^^--------------18-17-|
|---------------------------------------------------------------------|
|---------------------------------------------------------------------|
|---------------------------------------------------------------------|
|---------------------------------------------------------------------|

  WAH & BAR
|-------------------------------------------------------------------|
|-------------------------------------------------------------------|
|----------------------------------------------------------15-16-18-|
|----------------------------------------14-15-17-14-15-17----------|
|-12\\\\\\-------------13-14-16-13-14-16----------------------------|
|-------------12-13-15----------------------------------------------|
              .. .. .. .. .. .. .. .. ..
                                         WAH
|----------------------------15-16-18-15-18fb^r\\\\\\\\----|
|----------15-17-18-15-17-18-------------------------------|
|-15-16-18-------------------------------------------------|
|----------------------------------------------------------|
|----------------------------------------------------------|
|----------------------------------------------------------|



 RIFF 9A x2 UNDER SOLO 2

|---------------------|---------------------|
|---------------------|---------------------|
|---------------------|---------------------|
|---------------------|---------------------|
|------4--------------|------4--------------|
|-3333---333333444444-|-3333---444444777777-|
  ....   ............   ....   ............


 FILL 4 UNDER SOLO 2

|-------------------------------|
|-------------------------------|
|-------------------------------|
|-------------------------------|
|------2-4-----2-5-----2-4------|
|-3333-0-2-----0-3-----0-2------|
  ....



 RIFF 4B BREAK x1

|KING
|--------------------------------------------------------------------|
|--------------------------------------------------------------------|
|--------------------------------------------------------------------|
|--------------------------------------------------------------------|
|-2--------8-7b^^----------10-8b^^-----------8-7b^^^^^^^^^^------3---|
|-0-000000---------0-000000---------0-000000---------------------1---|
|   ......         . ......         . ......
|
|HANNEMAN
|--------------------------------------------------------------------|
|--------------------------------------------------------------------|
|--------------------------------------------------------------------|
|--------------------------------------------------------------------|
|-2--------------------------------------------------------------3---|
|-0--------------------------------------------------------------1---|
   x


 RIFF 10 INTERLUDE x1

|x3
|---------------------------------|---------------------------------|
|---------------------------------|---------------------------------|
|---------------------------------|---------------------------------|
|-------------------------6-5-4---|---------------------------------|
|-------------------------------5-|-------------------------6-------|
|-0-0-0-0-0-0-0-0-0-0-0-0---------|-0-0-0-0-0-0-0-0-0-0-0-0-4-------|
  . . . . . . . . . . . .           . . . . . . . . . . . .


|x1
|---------------------------------|---------------------------------|
|---------------------------------|---------------------------------|
|---------------------------------|---------------------------------|
|-------------------------6-5-4---|---------------------------------|
|-------------------------------5-|-------------------------2-3-----|
|-0-0-0-0-0-0-0-0-0-0-0-0---------|-0-0-0-0-0-0-0-0-0-0-0-0-0-1-----|
  . . . . . . . . . . . .           . . . . . . . . . . . .


 RIFF 6B BREAK x1

|-------------------------------------------------|
|-------------------------------------------------|
|---------------------------------4-------3-------|
|-------------------------5-------4-------3-------|
|-------------------------5-------2-------1-------|
|-3-2-0-2-3-2-0-2-3-2-0-2-3-----------------------|
  . . . . . . . . . . . .


 RIFF 10 INTERLUDE x1

 RIFF 6A CHORUS x1

 RIFF 3 BREAK x3


 RIFF 4B END

|KING
|--------------------------------------------------------------------|
|--------------------------------------------------------------------|
|--------------------------------------------------------------------|
|--------------------------------------------------------------------|
|-2--------8-7-------------10-8--------------8-7-----2-3-------------|
|-0--------8-7-------------10-8--------------8-7-----0-1-------------|
|  x             x                x                     x
|
|HANNEMAN
|--------------------------------------------------------------------|
|--------------------------------------------------------------------|
|--------------------------------------------------------------------|
|--------------------------------------------------------------------|
|-2--------3-2--------------5-3--------------3-2-----2-3-------------|
|-0--------1-0--------------3-1--------------1-0-----0-1-------------|
   x             x                x                     x


2. Death's Head

Tunning A chord diagramDbDb A chord diagramGbGb A chord diagramBB A chord diagramE MajorE A chord diagramAbAb A chord diagramDbDb  (Key of A chord diagramC#C#)


Intro Riff

|--------------------------------------------|
|--------------------------------------------|
|--------------------------------------------|
|--------------------------------------------|
|--------------------------------------------|
|000--000--000--000--000--000----310-310-310-|
 ...  ...  ...  ...  ...  ...    ... ... ...


Riff 1   8 times

|-----------------------|
|-----------------------|
|-----------------------|
|-----------------------|
|2-3--/8-7---22-3--/8-7-|
|0-1--/6-5---00-1--/6-5-|
             ,,


Riff 2                          Riff 2 A chord diagramA augmentedA

|---------------------------|  |----------------------------------|
|---------------------------|  |----------------------------------|
|---------------------------|  |----------------------------------|
|---------------------------|  |----------------------------------|
|2------3--2~---3------5--6-|  |2------3--2~---3------5-----------|
|0--------------1------3--4-|  |0--------------1------3---310-310-|



Riff 1 8 times

Riff 2 and Riff 2 A chord diagramA augmentedA 1 time



Riff 3  4 times

|----------------------------|
|----------------------------|Right Channel plays this with Wah, and Varies
|----------------------------|the Pinch Harmonic while Left Channel sustains
|-------------------------ph-|an Open Low A chord diagramE MajorE Power Chord
|9-999--8~~----10--9-999--8--|
|------------0---------------|
             .


Riff 1 8 times



Riff 4  4 times

|--------------------------------------|
|--------------------------------------|
|--------------------------------------|
|--------------------------------------|
|444--333--2--5----4-444--3-33--2-2--5-|
|222--111--0--3----2-222--1-11--0-0--3-|
                     ...


Riff 5  8 times

|--------------------------------------------|
|------------With Tremolo Effects Throughout-|
|--------------------------------------------|
|----------------------Slight PM Throughout--|
|--------------------------------------------|
|3-3333--2--0---4----------------------------|
 , ,,,,  ,  ,   ,


Riff 1 7 1/2 times, finish with Fill 1


Fill 1

|---------|
|---------|
|---------|
|---------|
|2-3--8-7-|
|0-1--6-5-|
 . .  . .


Long Slide

|---------|
|---------|
|---------|
|---------|
|---------|
|--/---\--|



Riff 6

|---------------------------------------|
|---------------------------------------|
|---------------------------------------|
|-----666--555----------------------444-|
|444--444--333--666--555--222--333--222-|
|222------------444--333--000--111------|
                          ...  ...


Riff 7                           Fill 2 A chord diagramA augmentedA

|-----------------------------| |--------------|  This Riff progresses through
|-----------------------------| |--------------|  each Fill that follows.
|-----------------------------| |--------------|
|-----666--555--666-------444-| |--------------|
|444--444--333--444--666--222-| |---3-2--1-5-4-|
|222-----------------444------| |-2------------|
                                  . . .  . . .


Fill 2 A chord diagramBB           Fill 2 A chord diagramC majorC        Fill 2 A chord diagramD MajorD

Left Channel
|---------------| |-------------| |-------------|
|---------------| |-------------| |-------------|
|---------------| |-------------| |-------------|
|---------------| |--3-2--1-5-4-| |--3-2--1-5-4-|
|2-2-2--6-5-4---| |--3-2--1-5-4-| |--3-2--1-5-4-|
|2--------------| |2------------| |2------------|
   . .  . .        . . .  . .      . . .  . . .


Fill 2 A chord diagramBB           Fill 2 A chord diagramC majorC        Fill 2 A chord diagramD MajorD

Right Channel
|---------------| |-------------| |-------------|
|---------------| |-------------| |-------------|
|---------------| |-------------| |-------------|
|4--------------| |-------------| |4------------|
|4------0-1-0---| |--3-3--------| |4------6-7-6-|
|--2-2----------| |0-3-3--6-7-6-| |--3-3--------|
 . . .  . . .      . . .  . . .      . .    .



Riff 8

|---------------------|*    The right Channel plays this song
|---------------------|*    through a Wah (again) It varies
|---------------------|*    quite a bit...
|-----666--555--------|*
|444--444--333--7-6-7-|*
|222------------5-4-5-|*


Play Long Slide



Riff 9

|-------------------------------------------------------------------
|-------------------------------------------------------------------
|-------------------------------------------------------------------
|-------------------------------------------------------------------
|--------4--3~---------------------------------------4-3~-----------
|2---0-2--------0-2--6--5~--0-2-3-2~--3-5-6---0--0-2------0-2--3-2~-
     . .        . .  .      . . .     . .        . .      . .


Riff 9 Fill 1

First Time only
|--------------------|
|--------------------|
|--------------------|
|----------------2-1-|
|----------3-2-3-----|
|-3-2-0--2-----------|
  . . .  . . . .




Riff 9 Fill 2 Cont.

Left Channel

|------------------------------------|
|------------------------------------|
|------------------------------------|
|----------------1-0-----------------|
|---------3-2--2------1--4-3--0--3-2-|
|3-2-0--2----------------------------|
 . . .  .      .      .       .



Riff 9 Fill 2 Cont.

Right Channel

|------------------------------------|
|------------------------------------|
|------------------------------------|
|----------------5-4----4-3------3-0-|
|---------3-2--2------1-------0------|
|3-2-0--2----------------------------|
 . . .  .      .      .       .



Riff 10

|-------|
|-------|
|-------|
|-------|
|5-4--2-|
|3-2--0-|
 , ,

3. Stain of Mind

Tuning A chord diagramDbDb


 RIFF 1 INTRO x1

|KING
|-------------------------------|-------------------------------|
|-------------------------------|-------------------------------|
|-------------------------------|-------------------------------|
|---9-----9-----9---9---8---9---|---9-----9-----9---9--12--11---|
|---7-----7-----7---7---6---7---|---7-----7-----7---7--10---9---|
|-0-----0-----0---0-------------|-0-----0-----0---0-------------|
| .     .     .   .               .     .     .   .
|
|HANNEMAN
|-------------------------------|-------------------------------|
|-------------------------------|-------------------------------|
|-------------------------------|-------------------------------|
|-------------------------------|-------------------------------|
|---7-----7-----7---7---6---7^--|---7-----7-----7---7--10---9^--|
|-0-----0-----0---0-------------|-0-----0-----0---0-------------|
  .     .     .   .               .     .     .   .


|KING
|-------------------------------|-------------------------------|
|-------------------------------|-------------------------------|
|-------------------------------|-------------------------------|
|---9-----9-----9---9---8---9---|---9-----9-----9---9--11--10---|
|---7-----7-----7---7---6---7---|---7-----7-----7---7---9---8---|
|-0-----0-----0---0-------------|-0-----0-----0---0-------------|
| .     .     .   .               .     .     .   .
|
|HANNEMAN
|-------------------------------|-------------------------------|
|-------------------------------|-------------------------------|
|-------------------------------|-------------------------------|
|-------------------------------|-----------------------9---8^--|
|---7-----7-----7---7---6---7^--|---7-----7-----7---7-----------|
|-0-----0-----0---0-------------|-0-----0-----0---0-------------|
  .     .     .   .               .     .     .   .


|KING
|-------------------------------|-------------------------------|
|-------------------------------|-------------------------------|
|-------------------------------|-------------------------------|
|---9-----9-----9---9---8---9---|---9-----9-----9---9--12--11---|
|---7-----7-----7---7---6---7---|---7-----7-----7---7--10---9---|
|-0-----0-----0---0-------------|-0-----0-----0---0-------------|
| .     .     .   .               .     .     .   .
|
|HANNEMAN
|-------------------------------|-------------------------------|
|-------------------------------|-------------------------------|
|-------------------------------|-------------------------------|
|-------------------------------|----------------------10---9^--|
|---7-----7-----7---7---6---7^--|---7-----7-----7---7-----------|
|-0-----0-----0---0-------------|-0-----0-----0---0-------------|
  .     .     .   .               .     .     .   .


|KING
|-------------------------------|-------------------------------|
|-------------------------------|-------------------------------|
|-------------------------------|-------------------------------|
|---9-----9-----9---9---8---9---|---9-----9-----9---9--11--10---|
|---7-----7-----7---7---6---7---|---7-----7-----7---7---9---8---|
|-0-----0-----0---0-------------|-0-----0-----0---0-------------|
| .     .     .   .               .     .     .   .
|
|HANNEMAN
|-------------------------------|-------------------------------|
|-------------------------------|-------------------------------|
|-------------------------------|-------------------------------|
|-------------------------------|-------------------------------|
|---7-----7-----7---7---6---7^--|---7-----7-----7---7---9---8^--|
|-0-----0-----0---0-------------|-0-----0-----0---0-------------|
  .     .     .   .               .     .     .   .


 FILL 1

|KING
|---------------------------------|---------------------------------|
|---------------------------------|---------------------------------|
|---------------------------------|---------------------------------|
|---------------------------------|---------------------------------|
|-2-------5-------4-------3-------|-2-------5-------4-------3-------|
|-0-------3-------2-------1-------|-0-------3-------2-------1-------|
|
|
|HANNEMAN WITH WAH
|---------------------------------|---------------------------------|
|---------------------------------|---------------------------------|
|---------------------------------|---------------------------------|
|---------------------------------|---------------------------------|
|-777777710101010-9999999-8888888-|-777777710101010-9999999-8888888-|
|---------------------------------|---------------------------------|



 RIFF 2A INTO VERSE x1

|KING
|-------------------------------|
|-------------------------------|
|-------------------------------|
|-------------------------------|
|-2---------------------2---5---|
|-0---------------------0---3---|
|  x                         x
|
|HANNEMAN
|-------------------------------|
|-------------------------------|
|-------------------------------|
|-------------------------------|
|-2-4---2-4---2-4-2-4---2---5---|
|-0-2---0-2---0-2-0-2---0---3---|


|KING x2
|-------------------------------|
|-------------------------------|
|-------------------------------|
|-------------------------------|
|-----------------------2---5---|
|-----------------------0---3---|
|                            x
|
|HANNEMAN x2
|-------------------------------|
|-------------------------------|
|-------------------------------|
|-------------------------------|
|-2-4---2-4---2-4-2-4---2---5---|
|-0-2---0-2---0-2-0-2---0---3---|



 RIFF 2 VERSE x4

|-------------------------------|
|-------------------------------|
|-------------------------------|
|-------------------------------|
|-2-4---2-4---2-4-2-4---2---5---|
|-0-2---0-2---0-2-0-2---0---3---|
  . .   . .   . . . .


 RIFF 2B BREAK x2

|KING
|-------------------------------|
|-------------------------------|
|-------------------------------|
|-------------------------------|
|-2-4---2-4---2-4-2-4---2---5---|
|-0-2---0-2---0-2-0-2---0---3---|
|
|
|HANNEMAN
|-------------------------------|
|-------------------------------|
|-------------------------------|
|-------------------------------|
|-2-4---2-4---2-4-2-4---2---5---|
|-0-2---0-2---0-2-0-2---0---3---|
  . .   . .   . . . .


 RIFF 2 VERSE x4


 RIFF 3 BRIDGE x4

|-----------------|-----------------|
|-----------------|-----------------|
|-----------------|-----------------|
|-----------------|-----------------|
|-----------------|-----------------|
|-0---2---3---5---|-0---2---3---5---|
  .   .   .   .     .   .   .   .


 RIFF 3A CHORUS x8

|-----------------|-----------------|
|-----------------|-----------------|
|-----------------|-----------------|
|-----------------|-----------------|
|-2---4---5---7---|-2---4---5---7---|
|-0---2---3---5---|-0---2---3---5---|



 RIFF 2A BREAK x1

 RIFF 2 VERSE x4

 RIFF 2B BREAK x2

 RIFF 2 VERSE x4

 RIFF 3 BRIDGE x8

 RIFF 3A CHORUS x8


 SOLO KING
  WAH_        WAH        WAH                    WAH____  WAH______________
|-----------------------------------------------15/21\5--------4-5-4-------|
|-/20b^^^^----20b^^^^----20b^^^^^^^^^^^^^^^^-------------4-6-7-------7-6-4-|
|-/22b^^^^----22b^^^^----22b^^^^^^^^^^^^^^^^-------------------------------|
|--------------------------------------------------------------------------|
|--------------------------------------------------------------------------|
|--------------------------------------------------------------------------|

  WAH_______________________________________________________________
|-------4-5-4-----------------------------------------------------------|
|-4-6-7-------7-6-4-7-6-4-----------------------------------------------|
|-------------------------7-5-4-7-5-4-----------------------------------|
|-------------------------------------6-4-3-6-4-3-----------------------|
|-------------------------------------------------5-3-2-5-3-2-----------|
|-------------------------------------------------------------4-2-1b^^--|

  WAH_________      WAH_________                       N.H. BAR
|------------------------------------------------------------------------|
|------------------------------------------------------22////\\\\\\\\----|
|-------------------------3-5-4b^^----//16b^^^^^^^^----22////\\\\\\\\----|
|-------------------2-3-4------------------------------------------------|
|-------1-3-2b^^---------------------------------------------------------|
|-0-1-2------------------------------------------------------------------|

  N.H. BAR
|---------------------------------------------------|
|-22////////////////--------------------------------|
|---------------------------------------------------|
|---------------------------------------------------|
|----------------------------------------x\\\\\\----|
|---------------------x\\\\\\\\\\\\\\\\-------------|



 RIFF 2C x8 UNDER SOLO

|-------------------------------|
|-------------------------------|
|-------------------------------|
|-2-4---2-4---2-4-2-4---5-------|
|-0-2---0-2---0-2-0-2---3---6---|
|---------------------------4---|



 FILL 2 UNDER SOLO
  WAH_
|---------------------|
|---------------------|
|---------------------|
|---------------------|
|---------------------|
|-4//7----------------|


 RIFF 2D INTO VERSE

|KING
|-------------------------------|
|-------------------------------|
|-------------------------------|
|-------------------------------|
|-2---------------------2---5---|
|-0---------------------0---3---|
|  x                         x
|
|HANNEMAN
|-------------------------------|
|-------------------------------|
|-------------------------------|
|-------------------------------|
|-2-4---2-4---2-4-2-4---2---5---|
|-0-2---0-2---0-2-0-2---0---3---|


|KING
|---------------------|
|---------------------|
|---------------------|
|---------------------|
|-------------2---5---|
|-------------0---3---|
|                  x
|
|HANNEMAN
|---------------------|
|---------------------|
|---------------------|
|---------------------|
|-2-4---2-4---2---5---|
|-0-2---0-2---0---3---|



 RIFF 2 VERSE x8


 FILL 3

|-------|
|-------|
|-------|
|-------|
|-2-----|
|-0-----|
   x


 RIFF 3 BRIDGE ONLY BASS

 HANNEMAN FINGER SLIDE

 RIFF 3A CHORUS x8

 RIFF 1 OUTRO x1


 FILL 1A

|KING
|---------------------------------|---------------------------------|-------
|---------------------------------|---------------------------------|-------
|---------------------------------|---------------------------------|-------
|---------------------------------|---------------------------------|-------
|-2-------5-------4-------3-------|-2-------5-------4-------3-------|-2-----
|-0-------3-------2-------1-------|-0-------3-------2-------1-------|-0-----
|                                                                      x
|
|HANNEMAN WITH WAH_______________
|---------------------------------|---------------------------------|-------
|---------------------------------|---------------------------------|-------
|---------------------------------|---------------------------------|-------
|---------------------------------|---------------------------------|-------
|-777777710101010-9999999-8888888-|-2-------5-------4-------3-------|-2-----
|---------------------------------|-0-------3-------2-------1-------|-0----
                                                                       x
4. Overt Enemy


Tuning A chord diagramEb MajorEb


 BASS INTRO

 RIFF 1 INTRO x1

|KING
|--------------------------------|--------------------------------|
|--------------------------------|--------------6--5--------------|
|--------------------------------|----4--3b^^---------------------|
|--------------3--2--------------|--------------------3--2b^^-----|
|----2--1b^^---------3b^^--------|--------------------------------|
|-0------------------------------|-0------------------------------|
|
|
|HANNEMAN
|--------------------------------|--------------------------------|
|--------------------------------|--------------------------------|
|--------------------------------|--------------------------------|
|--------------3--2--------------|--------------3--2--------------|
|----2--1b^^---------3b^^--------|----2--1b^^---------3--2b^^-----|
|-0------------------------------|-0------------------------------|


|KING
|--------------------------------|--------------------------------|
|--------------------------------|-------------10--9--------------|
|--------------------8b^^--------|----7--6b^^---------9--8b^^-----|
|-/7--6b^^----10--9--------------|--------------------------------|
|--------------------------------|--------------------------------|
|--------------------------------|-0------------------------------|
|
|
|HANNEMAN
|--------------------------------|--------------------------------|
|--------------------------------|--------------------------------|
|--------------------------------|--------------------------------|
|--------------------------------|--------------3--2--------------|
|--------------------3b^^--------|----2--1b^^---------3--2b^^-----|
|-/2--1b^^-----5--4--------------|-0------------------------------|



 RIFF 2 MAIN x1

|-----|---------------------------------|---------------------------------|
|-----|---------------------------------|---------------------------------|
|-----|---------------------------------|---------------------------------|
|-----|-----------------------------3-2-|-----------------------------3---|
|-2---|-5-4-2-5-4-2-2-2-5-4-2-5-4-2-1-0-|-5-4-2-5-4-2-2-2-5-4-2-5-4-2-1---|
|-0---|-3-2-0-3-2-0-0-0-3-2-0-3-2-0-----|-3-2-0-3-2-0-0-0-3-2-0-3-2-0-----|
        . . . . . . . . . . . . . . . .   . . . . . . . . . . . . . .


|---------------------------------|-----------------------------|
|---------------------------------|-----------------------------|
|---------------------------------|-----------------------------|
|-----------------------------3-2-|-----------------------------|
|-5-4-2-5-4-2-2-2-5-4-2-5-4-2-1-0-|-5-4-2-5-4-2-2-2-5-4-2-5-4-2-|
|-3-2-0-3-2-0-0-0-3-2-0-3-2-0-----|-3-2-0-3-2-0-0-0-3-2-0-3-2-0-|
  . . . . . . . . . . . . . . . .   . . . . . . . . . . . . . .


 RIFF 3 VERSE x3

|-----------------------------|
|-----------------------------|
|-----------------------------|
|-------------------3-----2---|
|-2---5-----4---2---1-----0---|
|-0---3-----2---0-------------|



 FILL 1

|-----------------------------|
|-----------------------------|
|-----------------------------|
|-----------------------------|
|-5---2-2---2-2---2-2---2-2---|
|-3---0-0---0-0---0-0---0-0---|
      . .x  . .x  . .x  . .x


 RIFF 3 VERSE x3


 FILL 2

|-----------------|
|-----------------|
|-----------------|
|-----------------|
|-5---2-2---2-2---|
|-3---0-0---0-0---|
      . .x  . .x


 RIFF 3 VERSE x3


 FILL 3

|-----------------------|
|-----------------------|
|-----------------------|
|-----------------------|
|-5---2-2---2-2---2-2---|
|-3---0-0---0-0---0-0---|
      . .x  . .x  . .x


 RIFF 4 CHORUS x1
|x1                           |x2                           |x1
|-----------------------------|-----------------------------|-----|
|-----------------------------|-----------------------------|-----|
|-----------------------------|-----------------------------|-----|
|-----4-----3-------4---------|-----4-----3-------4---------|-----|
|-5---2-----1---5---2-----3---|-2---2-----1---5---2-----3---|-2---|
|-3-------------3---------1---|-0-------------3---------1---|-0---|



 SOLO 1 HANNEMAN
  WAH_______________________  WAH_______________________
|---------------------------------------------------------|
|---------------------------------------------------------|
|-111111111111-101010-111111--141414141414-131313-141414--|
|---------------------------------------------------------|
|---------------------------------------------------------|
|---------------------------------------------------------|

  WAH_______________________  WAH_______________________
|---------------------------------------------------------|
|---------------------------------------------------------|
|-111111111111-101010-111111--141414141414-131313-141414--|
|---------------------------------------------------------|
|---------------------------------------------------------|
|---------------------------------------------------------|

  WAH_____________________________________________________________________
|-----------------------------------------------------------------------------|
|-------------------13-15-16-13-15-16-15-13-----------------------------------|
|-13-14-16-13-14-16-------------------------16-14-13-16-14-13-----------------|
|-------------------------------------------------------------15-13-15/16b^^--|
|-----------------------------------------------------------------------------|
|-----------------------------------------------------------------------------|

  WAH_______________________________________________________________
|--------------------------------------------------------------------|
|-18-20-18-21-181818-20-18-21-181818-20-18-21-181818-20-18-21-181818-|
|--------------------------------------------------------------------|
|--------------------------------------------------------------------|
|--------------------------------------------------------------------|
|--------------------------------------------------------------------|

  WAH________________    WAH
|-----------------22b^^-----------------|
|-20-18-21-181818-----------------------|
|------------------------20b^^^^\\\\----|
|---------------------------------------|
|---------------------------------------|
|---------------------------------------|



 RIFF 5 x3 UNDER SOLO

|-----------------------------|
|-----------------------------|
|-----------------------------|
|-----------------------------|
|-4-----3---4---7-----6---9---|
|-2-----1---2---5-----4---7---|


 FILL 1A UNDER SOLO

|--------------------------|
|--------------------------|
|--------------------------|
|--------------------------|
|--2-2---2-2---2-2---2-2---|
|--0-0---0-0---0-0---0-0---|
   . .x  . .x  . .x  . .x



 RIFF 3 VERSE x3

 FILL 2

 RIFF 3 VERSE x3

 FILL 3

 RIFF 4 CHORUS x1


 SOLO 2 HANNEMAN
  WAH________________________________________________________________
|---------------------------------------------------------------------|
|---------------------------------------------------7-9-10-9-7--------|
|-------------------------------------7-8-10-7-8-10------------10-8-7-|
|-------------------------6-7-9-6-7-9---------------------------------|
|-------------5-6-8-5-6-8---------------------------------------------|
|-4-5-7-4-5-7---------------------------------------------------------|
  . . . . . . . . . . . .
  WAH_________________________________________________  WAH___    WAH___
|---------------------------------------------------------------------------|
|-10-9-7--------10-9-7----10-9-7-------------7-9-10b^^--15--------15--------|
|--------10-8-7--------10--------10-8-7-8-10---------------16b^^-----16b^^--|
|---------------------------------------------------------------------------|
|---------------------------------------------------------------------------|
|---------------------------------------------------------------------------|

  WAH_______________________   WAH________________________________
|------------------------------16-17-19-16-17-19----------16-17-19-|
|----------16-18-19-18-19-18^--------------------16-18-19----------|
|-16-17-19---------------------------------------------------------|
|------------------------------------------------------------------|
|------------------------------------------------------------------|
|------------------------------------------------------------------|

  WAH________________________BAR
|----------16-17-19-----------------------------------|
|-16-18-19----------16-18/19b////////////////\\/\\----|
|-----------------------------------------------------|
|-----------------------------------------------------|
|-----------------------------------------------------|
|-----------------------------------------------------|


 RIFF 5 x3 UNDER SOLO 2

 FILL 1B UNDER SOLO 2

|------------------------------|
|------------------------------|
|------------------------------|
|------------------------------|
|--2-2---2-2---2-2---2-2---3---|
|--0-0---0-0---0-0---0-0---1---|
   . .x  . .x  . .x  . .x


 RIFF 6 INTERLUDE x1

|KING
|-------------------------------------------------|
|-------------------------------------------------|
|-------------------------------------------------|
|-------------------9-----8-----------7-----------|
|-7-----8----10-----------------9-----------8-----|
|---0-0---0-0---0-0---0-0---0-0---0-0---0-0---0-0-|
|   . .   . .   . .   . .   . .   . .   . .   . .
|
|HANNEMAN
|-------------------------------------------------|
|-------------------------------------------------|
|-------------------------------------------------|
|-------------------------------------------------|
|-2-----------------------------------------------|
|-0-----------------------------------------------|
   x

|KING                                        TRILL
|-------------------------------------------------|
|-------------------------------------------------|
|-------------------------------------------------|
|-------------------9-----8-----------7-----------|
|-7-----8----10-----------------9-----------8h9p8-|
|---0-0---0-0---0-0---0-0---0-0---0-0---0-0-------|
|   . .   . .   . .   . .   . .   . .   . .
|
|HANNEMAN
|-------------------------------------------------|
|-------------------------------------------------|
|-------------------------------------------------|
|-------------------------------------------------|
|-------------------------------------------------|
|-------------------------------------------------|


|KING
|-------------------------------------------------|
|-------------------------------------------------|
|-------------------------------------------------|
|-------------------9-----8-----------7-----------|
|-7-----8----10-----------------9-----------8-----|
|---0-0---0-0---0-0---0-0---0-0---0-0---0-0---0-0-|
|   . .   . .   . .   . .   . .   . .   . .   . .
|
|HANNEMAN
|-------------------------------------------------|
|-------------------------------------------------|
|-------------------------------------------------|
|-------------------------------------------------|
|-2-----2-----2-----2-----2-----2-----2-----2-----|
|-0-----0-----0-----0-----0-----0-----0-----0-----|
  .x    .x    .x    .x    .x    .x    .x    .x

|KING                                        TRILL
|-------------------------------------------------|
|-------------------------------------------------|
|-------------------------------------------------|
|-------------------9-----8-----------7-----------|
|-7-----8----10-----------------9-----------8h9p8-|
|---0-0---0-0---0-0---0-0---0-0---0-0---0-0-------|
|    . .   . .   . .   . .   . .   . .   . .
|
|HANNEMAN
|-------------------------------------------------|
|-------------------------------------------------|
|-------------------------------------------------|
|-------------------------------------------------|
|-2-----2-----2-----2-----2-----2-----2-----------|
|-0-----0-----0-----0-----0-----0-----0----13\\\\-|
  .x    .x    .x    .x    .x    .x    .x


 RIFF 2A MAIN x1

|---------------------------------|---------------------------------|
|---------------------------------|---------------------------------|
|---------------------------------|---------------------------------|
|---------------------------------|-----------------------------3-2-|
|-5-4-2-5-4-2-2-2-5-4-2-5-4-2-3-2-|-5-4-2-5-4-2-2-2-5-4-2-5-4-2-1-0-|
|-3-2-0-3-2-0-0-0-3-2-0-3-2-0-1-0-|-3-2-0-3-2-0-0-0-3-2-0-3-2-0-----|
  . . . . . . . . . . . . . . . .   . . . . . . . . . . . . . . . .


|---------------------------------|---------------------------------|
|---------------------------------|---------------------------------|
|---------------------------------|---------------------------------|
|---------------------------------|-----------------------------3---|
|-5-4-2-5-4-3-2-2-5-4-2-5-4-2-3-2-|-5-4-2-5-4-2-2-2-5-4-2-5-4-2-1---|
|-3-2-0-3-2-1-0-0-3-2-0-3-2-0-1-0-|-3-2-0-3-2-0-0-0-3-2-0-3-2-0-----|
  . . . . . . . . . . . . . . . .   . . . . . . . . . . . . . .


 RIFF 6A INTERLUDE

|KING
|-------------------------------------------------|
|-------------------------------------------------|
|-------------------------------------------------|
|-------------------------------------------------|
|-2-----------------------------------------------|
|-0-----------------------------------------------|
|  x
|
|HANNEMAN
|-------------------------------------------------|
|-------------------------------------------------|
|-------------------------------------------------|
|-------------------9-----8-----------7-----------|
|-7-----8----10-----------------9-----------8-----|
|---0-0---0-0---0-0---0-0---0-0---0-0---0-0---0-0-|
    . .   . .   . .   . .   . .   . .   . .   . .


|KING
|-------------------------------------------------|
|-------------------------------------------------|
|-------------------------------------------------|
|-------------------------------------------------|
|-2-----2-----2-----2-----2-----2-----2-----2-----|
|-0-----0-----0-----0-----0-----0-----0-----0-----|
| .x    .x    .x    .x    .x    .x    .x    .x
|
|HANNEMAN                                   A.H.
|-------------------------------------------------|
|-------------------------------------------------|
|-------------------------------------------------|
|-------------------9-----8-----------7-----------|
|-7-----8----10-----------------9-----------8b^^--|
|---0-0---0-0---0-0---0-0---0-0---0-0---0-0-------|
    . .   . .   . .   . .   . .   . .   . .


|KING
|-------------------------------------------------|
|-------------------------------------------------|
|-------------------------------------------------|
|-------------------------------------------------|
|-2-----2-----2-----2-----2-----2-----2-----3-----|
|-0-----0-----0-----0-----0-----0-----0-----1-----|
| .x    .x    .x    .x    .x    .x    .x
|
|HANNEMAN
|-------------------------------------------------|
|-------------------------------------------------|
|-------------------------------------------------|
|-------------------9-----8-----------7-----------|
|-7-----8----10-----------------9-----------8b^^--|
|---0-0---0-0---0-0---0-0---0-0---0-0---0-0-------|
    . .   . .   . .   . .   . .   . .   . .


 RIFF 2B MAIN x1

|---------------------------------|---------------------------------|
|---------------------------------|---------------------------------|
|---------------------------------|---------------------------------|
|---------------------------------|-----------------------------3-2-|
|-5-4-2-5-4-2-2-2-5-4-2-5-4-2-3-2-|-5-4-2-5-4-2-2-2-5-4-2-5-4-2-1-0-|
|-3-2-0-3-2-0-0-0-3-2-0-3-2-0-1-0-|-3-2-0-3-2-0-0-0-3-2-0-3-2-0-----|
  . . . . . . . . . . . . . . . .   . . . . . . . . . . . . . . . .


|---------------------------------|---------------------------------|
|---------------------------------|---------------------------------|
|---------------------------------|---------------------------------|
|---------------------------------|---------------------------------|
|-5-4-2-5-4-3-2-2-5-4-2-5-4-2-3-2-|-5-4-2-5-4-2-2-2-5-4-2-5-4-2-8\\-|
|-3-2-0-3-2-1-0-0-3-2-0-3-2-0-1-0-|-3-2-0-3-2-0-0-0-3-2-0-3-2-0-6\\-|
  . . . . . . . . . . . . . . . .   . . . . . . . . . . . . . .


 RIFF 7 BREAK x1

|-------------------------------------------------|
|-------------------------------------------------|
|-------------------------------------------------|
|-------------------------------------------------|
|-2-----2-----2-----2-----2-----2-----2-----2-----|
|-0-----0-----0-----0-----0-----0-----0-----0-----|
  .x    .x    .x    .x    .x    .x    .x    .x


|KING
|-------------------------------------------------|
|-------------------------------------------------|
|-------------------------------------------------|
|-------------------------------------------------|
|-2-----2-----2-----2-----2-----2-----2-----3-----|
|-0-----0-----0-----0-----0-----0-----0-----1-----|
| .x    .x    .x    .x    .x    .x    .x
|
|HANNEMAN
|-------------------------------------------------|
|-------------------------------------------------|
|-------------------------------------------------|
|-------------------------------------------------|
|-2-----2-----2-----2-----2-----2-----2-----------|
|-0-----0-----0-----0-----0-----0-----0---/13\\\\-|
  .x    .x    .x    .x    .x    .x    .x


 RIFF 6A INTERLUDE x1

|BOTH
|-------------------------------------------------|
|-------------------------------------------------|
|-------------------------------------------------|
|-------------------9-----8-----------7-----------|
|-7-----8----10-----------------9-----------8-----|
|---0-0---0-0---0-0---0-0---0-0---0-0---0-0---0-0-|
    . .   . .   . .   . .   . .   . .   . .   . .

|KING                                        TRILL
|-------------------------------------------------|
|-------------------------------------------------|
|-------------------------------------------------|
|-------------------9-----8-----------7-----------|
|-7-----8----10-----------------9-----------8h9p8-|
|---0-0---0-0---0-0---0-0---0-0---0-0---0-0-------|
|   . .   . .   . .   . .   . .   . .   . .
|
|HANNEMAN                                   TRILL
|-------------------------------------------------|
|-------------------------------------------------|
|-------------------------------------------------|
|-------------------9-----8-----------7-----6h7p6-|
|-7-----8----10-----------------9-----------------|
|---0-0---0-0---0-0---0-0---0-0---0-0---0-0-------|
    . .   . .   . .   . .   . .   . .   . .


|BOTH
|-------------------------------------------------|
|-------------------------------------------------|
|-------------------------------------------------|
|-------------------9-----8-----------7-----------|
|-7-----8----10-----------------9-----------8-----|
|---0-0---0-0---0-0---0-0---0-0---0-0---0-0---0-0-|
    . .   . .   . .   . .   . .   . .   . .   . .

|KING                                        TRILL
|-------------------------------------------------|
|-------------------------------------------------|
|-------------------------------------------------|
|-------------------9-----8-----------7-----------|
|-7-----8----10-----------------9-----------8h9p8-|
|---0-0---0-0---0-0---0-0---0-0---0-0---0-0-------|
|   . .   . .   . .   . .   . .   . .   . .
|
|HANNEMAN                                   TRILL
|-------------------------------------------------|
|-------------------------------------------------|
|-------------------------------------------------|
|-------------------9-----8-----------7-----6h7p6-|
|-7-----8----10-----------------9-----------------|
|---0-0---0-0---0-0---0-0---0-0---0-0---0-0-------|
    . .   . .   . .   . .   . .   . .   . .


|BOTH
|-------------------------------------------------|
|-------------------------------------------------|
|-------------------------------------------------|
|-------------------9-----8-----------7-----------|
|-7-----8----10-----------------9-----------8-----|
|---0-0---0-0---0-0---0-0---0-0---0-0---0-0---0-0-|
    . .   . .   . .   . .   . .   . .   . .   . .

|BOTH                                       TRILL
|-------------------------------------------------|
|-------------------------------------------------|
|-------------------------------------------------|
|-------------------9-----8-----------7-----------|
|-7-----8----10-----------------9-----------8h9p8-|
|---0-0---0-0---0-0---0-0---0-0---0-0---0-0-------|
    . .   . .   . .   . .   . .   . .   . .


 FILL 4

|-------------------|-----------------------------|
|-------------------|-----------------------------|
|-------------------|-----------------------------|
|-------------------|-------------3--2------------|
|-2-----2-----2-----|---2--1b^^---------3--2b^^---|
|-0-----0-----0-----|-0---------------------------|
  .x    .x    .x


 RIFF 2 MAIN x1

 RIFF 3 VERSE x3


 FILL 5 END

|-----------|
|-----------|
|-----------|
|-----------|
|-5---2-2---|
|-3---0-0---|
      . .x

5. Perversions of Pain


Tuning A chord diagramEb MajorEb


 RIFF 1 INTRO x1

|-----------------------------|-----------------------------|
|-----------------------------|-----------------------------|
|-----------------------------|-----------------------------|
|-4---------------------------|-4---------------------------|
|-2------2------2------1------|-2------3------2------1------|
|--------3------2------1------|--------3------2------1------|


|-----------------------------|-----------------------------|
|-----------------------------|-----------------------------|
|-----------------------------|-----------------------------|
|-4---------------------------|-4---------------------------|
|-2------2------2------1------|-2------4------3------7------|
|--------3------2------1------|--------2------1------5------|



 RIFF 1A VERSE x3

|-----------------------------|-----------------------------|
|-----------------------------|-----------------------------|
|-----------------------------|-----------------------------|
|-4---------------------------|-4---------------------------|
|-2------2------2------1------|-2------3------2------1------|
|---0000-3-0000-2-0000-1-0000-|---0000-3-0000-2-0000-1-0000-|
    ....   ....   ....   ....     ....   ....   ....   ....


|-----------------------------|-----------------------------|
|-----------------------------|-----------------------------|
|-----------------------------|-----------------------------|
|-4---------------------------|-4---------------------------|
|-2------2------2------1------|-2------4------3------7------|
|---0000-3-0000-2-0000-1-0000-|--------2------1------5------|
    ....   ....   ....   ....


 RIFF 2 CHORUS x1

|KING CLEAN                                                 DISTORTED
|---------------------------------|---------------------------------|
|---------------------------------|---------------------------------|
|-----4-------3-------5-------9---|-----4-------3-------5-----------|
|---2---2---2-------3---3---7---7-|---2---2---2-------3---3-7---6---|
|---------------------------------|---------------------------5---4-|
|-0-------0-------0-------0-------|-0-------0-------0---------------|
|                                                             .   .
|
|HANNEMAN
|---------------------------------|---------------------------------|
|---------------------------------|---------------------------------|
|---------------------------------|---------------------------------|
|---------------------------------|-------------------------7---6---|
|-2---------------2---------------|-2---------------2---------5---4-|
|-0---------------0---------------|-0---------------0---------------|
                                                              .   .


 RIFF 1A VERSE x2

 RIFF 2 CHORUS x1


 RIFF 3 INTERLUDE

|KING
|-------------------------------------------------------------|
|-------------------------------------------------------------|
|-------------------------------------------------------------|
|---2-1-----3-2-------6-5-----8---5-4-------4-3-----5-4-----7-|
|-------2-------3-2-------6-5---------5-4-------4-------5-4---|
|-0-------0---------0-----------0---------0-------0-----------|
| .       .         .           .         .       .
|
|HANNEMAN
|-------------------------------------------------------------|
|-------------------------------------------------------------|
|-------------------------------------------------------------|
|-------------------------------------------------------------|
|---2-1-----3-2-------4-3-----6---5-4-------2-1-----3-2-----5-|
|-0-----2-0-----3-2-0-----4-3---0-----5-4-0-----2-0-----3-2---|
  .       .         .           .         .       .


|KING
|---------------------------------------------------------------|
|---------------------------------------------------------------|
|---------------------------------------------------------------|
|---4-3-------3-2-----5---------------------------------3-2-----|
|-------4-3-------3-2-----2-1-----3-2-------4-3-----6-------3-2-|
|-0---------0-----------0-----2-0-----3-2-0-----4-3---0---------|
| .         .           .       .         .           .
|
|HANNEMAN
|---------------------------------------------------------------|
|---------------------------------------------------------------|
|---------------------------------------------------------------|
|---------------------------------------------------------------|
|---4-3-------5-4-----7---2-1-----3-2-------4-3-----6---5-4-----|
|-0-----4-3-0-----5-4---0-----2-0-----3-2-0-----4-3---0-----5-4-|
  .         .           .       .         .           .


 RIFF 4 BREAK x1

|KING
|-----------------------------------------------------|
|-----------------------------------------------------|
|-----------------------------------------------------|
|-----------------------------------------------------|
|----------5-4----------4-3----------2-1----------541-|
|-00000000-3-2-00000000-2-1-00000000-2-1-00000000-321-|
| ........     ........     ........     ........
|
|HANNEMAN
|-----------------------------------------------------|
|-----------------------------------------------------|
|-----------------------------------------------------|
|-----------------------------------------------------|
|-2--------5-4----------4-3----------2-1----------541-|
|-0--------3-2----------2-1----------2-1----------321-|
   x          x            x            x            x


|KING
|-----------------------------------------------------|
|-----------------------------------------------------|
|-----------------------------------------------------|
|-----------------------------------------------------|
|----------5-4----------4-3----------2-1----------541-|
|-00000000-3-2-00000000-2-1-00000000-2-1-00000000-321-|
| ........     ........     ........     ........
|
|HANNEMAN
|-----------------------------------------------------|
|-----------------------------------------------------|
|-----------------------------------------------------|
|-----------------------------------------------------|
|---------------------------------------------\\\\\\1-|
|---------------------------------------------\\\\\\1-|
                                                     x


 FILL 1

|-----------------------------------------------------|
|-----------------------------------------------------|
|-----------------------------------------------------|
|-----------------------------------------------------|
|----------3-2----------2-1----------1-2--------------|
|-00000000-3-2-00000000-2-1-00000000-1-0--------------|
  ........     ........     ........


 SOLO KING
  WAH A.H.   WAH      WAH_____________________________ WAH    WAH
|------------------------------15-16-18-16-15--------------------------|
|-////18b^^--18b^^^^--15-17-18----------------18-17-15-18b^^--18b^^^^--|
|--------------------------------------------------

Almost there ...

Sign in to get your own page with links to favourite songs and more. You are just one click away...

Login with Facebook Login with Google