Log in

One click and you are in

Login with Facebook Login with Google

Why sign up and log in

Guitar Tabs Explorer
Slayer bass tabs for Delusions of saviour

Bass tabs

Tuning: Standard (E A D G)

Key: F

Difficulty: Novice

Slayer - Delusions of Saviour

There is no lyric on this song

To play on a 4 strings bass retune a half-Step down (Eb,Ab,Db,Gb,), instead playing fret 4 on the B string
 play an open Eb string and play all other string 1 fret upper!

To play the original bass line just replace Verse: and outro: by Intro: bass line but it’s more fun to play
 it as follows, up to you!
***************************
\   Slide down
***************************


Intro:
G|-------------|-------------|-------------|-------------|
D|-------------|-------------|-------------|-------------|
A|-------------|-------------|-------------|-------------|
E|-------------|-------------|-------------|-------------|
B|-------------|-------------|-------------|-------------|

0:11:
G|-------------|-------------|-------------|-------------|
D|-------------|-------------|-------------|-------------|
A|-------------|-------------|-------------|-------------|
E|-------------|-------------|-------------|-------------|
B|-4-----------|-4-----------|-4-----------|------(12)\4-|

0:22: Chorus:
G|-------------------|-------------------|-------------------|-------------------|
D|-------------------|-------------------|-------------------|-------------------|
A|-------------------|-------------------|-------------------|-------------------| X2
E|---------------0---|---------------200-|---------------0---|---------------2-0-|
B|-44-4-4-44-4-4--44-|-44-4-4-44-4-4-----|-44-4-4-44-4-4--44-|-44-4-4-44-4-4-----|

0:45: Verse:
G|-------------------|-------------------|-------------------|-------------------|
D|-------------------|-------------------|-------------------|-------------------|
A|----------2--------|----------2--------|----------2--------|----------2--------|
E|---25-6-5---6-56-5-|---25-6-5---6-56-5-|---25-6-5---6-56-5-|---25-6-5---6-5----|
B|-4-----------------|-4-----------------|-4-----------------|-4-----------------|

0:57: Chorus:
G|-------------------|-------------------|-------------------|-------------------|
D|-------------------|-------------------|-------------------|-------------------|
A|-------------------|-------------------|-------------------|-------------------| X2
E|---------------0---|---------------200-|---------------0---|---------------2-0-|
B|-44-4-4-44-4-4--44-|-44-4-4-44-4-4-----|-44-4-4-44-4-4--44-|-44-4-4-44-4-4-----|

1:20: Verse:
G|-------------------|-------------------|-------------------|-------------------|
D|-------------------|-------------------|-------------------|-------------------|
A|----------2--------|----------2--------|----------2--------|----------2--------|
E|---25-6-5---6-56-5-|---25-6-5---6-56-5-|---25-6-5---6-56-5-|---25-6-5---6-5----|
B|-4-----------------|-4-----------------|-4-----------------|-4-----------------|

1:32: Outro:                          Slow down:
G|-------------------|-------------------|-------------------|--------------------|
D|----------4--------|----------4--------|----------4--------|----------4---------|
A|---47-8-7---7-78-7-|---47-8-7---7-78-7-|---47-8-7---7-78-7-|---47-8-7---7-------|
E|-------------------|-------------------|-------------------|----------------0---|
B|-4-----------------|-4-----------------|-4-----------------|-4------------4---4-|

Almost there ...

Sign in to get your own page with links to favourite songs and more. You are just one click away...

Login with Facebook Login with Google