Log in

One click and you are in

Login with Facebook Login with Google

Why sign up and log in

Guitar Tabs Explorer
Slayer guitar tabs for Dead skin mask

Guitar tabs with lyrics

Reply-To: cowen@essex.ac.uk (Chris Cowen)


I thought I saw somebody ask for some Slayer TAB last week so.............
Here is the intro to "dead skin mask" from "Seasons....."
as far as I can recall. This is all I  have time to type in for now.

It sounds better tuned to Eb. (of course)

x means play the A chord diagramE MajorE open, muted with the right hand (left for lefthanders!)
~ sustain and vibrato
-> slide

e---------------------------------------------------------------
b---------------------------------------------------------------
g-------------------------------------9~------------------------
D-----9-10------9-10-----9-10----9-10---------------------------
A---7---------8--------7-------8--------------------------------
E-x---------x--------x------------------------------------------

guitar 1

e-------------------------------------------------------------------------------------
b------------------------------------------------------------------------------------
g---------------------------------------------------------------------------------
D-----------------------------------------9-10------9-10------9-10----9-10-9~->-2~-
A---------------------------------------7---------8---------7-------8---------------
E-------------------------------------x---------x---------x-------------------------

guitar 2

repeat above once.
Then both guitars play:

e----------------------------------------
b----------------------------------------
g-------------------------------------8~-
D-----9-10------9-10-----9-10----9-10----
A---7---------8--------7-------8---------
E-x---------x--------x-------------------

e----------------------------------------
b----------------------------------------
g-------------------------------------7~-
D-----9-10------9-10-----9-10----9-10----
A---7---------8--------7-------8---------
E-x---------x--------x-------------------

e----------------------------------------
b----------------------------------------
g-------------------------------------8~-
D-----9-10------9-10-----9-10----9-10----
A---7---------8--------7-------8---------
E-x---------x--------x-------------------

e----------------------------------------------
b----------------------------------------------
g----------------------------------------------
D-----9-10------9-10-----9-10------------------
A---7---------8--------7--------8-8-5-3-3-3-2--
E-x---------x--------x----------6-6-3-1-0-1-0--

Cheerio.....
******************************************************************
*   I can believe anything, provided that it is quite incredible *
*   "The picture of Dorian Gray" - Oscar Wilde			 *
******************************************************************


Here is all I have worked out:
----------------------------|------------------|---------
----------------------------|------------------|-------------------
----------------------------|--------9---------|--------7------------
-----9-10------9-10-----9-10|-7-9-10-----------|-7-9-10-------------
---7---------8--------7-----|------------------|------------------------
-0---------0--------0-------|------------------|------------------------
|1st and 3rd ending|2nd and 4th ending repeat this each of the 4 | |
times with these endings--> | |


Main Riff: (The open A chord diagramE MajorE notes are palm muted)
---------------------------------------------------------
-------------------------------------------------------------------
----------------------------------------------------------------------
-2-----2-------------3-------------4---2/3---------------------------
-2-----2-------------1-------------2---0/1------------------------------
-0-0-0-0-0-0-3/0-0-0---0-0-3/0-0-0---0-----3-2-1-0------------------


Verse Riff:
----------------------------------------------------------------------
------------------------------------------------------------------------
----------------------------------------------------------------
-2---------------------------5/4----------------------------------------
-2---------------------------3/2------------------------------
-0----------------------------|--0-3-2-1-0--------------------- Let this
chord ring out |--->this slide might be wrong it might be from A chord diagramBB to A chord diagramBb majorBb

Oh well, its probably wrong, but it sounds right to me.  Let me know
what you think.  Thanks, G.

A chord diagramG MajorG (Galen Myers)~~~~~~~~~~~~~~~~~~~~~~~~~~~~~~~~~~~~~~~~~~~~~~~~~~~~~~~~~~~~~
Like -S.Pumpkins,AllmanBros,Pantera,Primus,Misfits,Live,Weezer,Prince
      FNM,NWA,DYoakam,PFloyd,GDead,SRV,Hendrix,JAddiction,
Abhor-STP,NIN,MManson,REM,VanHalen,Hole,QRyche,Offspring,GDay,Vai,VSalt,
      DTheater,MPuppets,CSoul,RATM,WZombie,DinoJr
E-mail if you would want to trade, etc.
"To defy the laws of tradition is a crusade only of the brave"-Les
~~~~~~~~~~~~~~~~~It's just a signature~~~~~~~~~~~~~~~~~~~~~~~~~~~~~~~~~~~~~~

Other versions of Dead Skin Mask

Dead skin mask (Ver. 2)Tabs

Almost there ...

Sign in to get your own page with links to favourite songs and more. You are just one click away...

Login with Facebook Login with Google