Log in

One click and you are in

Login with Facebook Login with Google

Why sign up and log in

Guitar Tabs Explorer
Slayer guitar tabs for Dead skin mask (Ver. 2)

Guitar tabs with lyrics

song: Dead Skin Mask
Album: Seasons In The Abyss
Tabbed by: Randy(Kreator143)
E-mail= Metaldeth161@aol.com
Submitted to GTE by: Linda

=  - palm mute           /  - slide up to
  - slide down to       ~  - vibrato
h  - hammer on           b  - Bend
p  - pull off            Suffixes for bend
t  - tap                 f  - full bend    h - half bend
ph - pinched harmonic    q  - quarter bend t - tap bend
*  - see comment         ^  - Hold bend    r release bend
x  - Stuccatto           ~  - vibrato bend
,  - slight palm mute    () - ghost note, sustained note
"  - tremolo note         - Trill


 Intro Riff 1 Guitar 1 play 2x Then Guitar 2 Play 2x
|-----------------------------------------|
|-----------------------------------------|
|-----------------------------------9~~~~~|
|-----9-10-----9-10-----9-10---9-10-------|
|---7--------8--------7------8------------|
|-0--------0--------0---------------------|
|Guitar 1 after intro                     |
|-----------------------------------------|
|-----------------------------------------|
|-9~~~~~~~~~~~~~~~~~~~~~~~~~~~~~~~~~~~~~~~|
|-----------------------------------------|
|-----------------------------------------|
|-----------------------------------------|

 BOTH GUITARS
|--------------------------------------|
|--------------------------------------|
|-----------------------------------9~~|
|-----9-10-----9-10-----9-10---9-10----|
|---7--------8--------7------8---------|
|-0--------0--------0------------------|
|                                      |
|--------------------------------------|
|--------------------------------------|
|-----------------------------------9~~|
|-----9-10-----9-10-----9-10---9-10----|
|---7--------8--------7------8---------|
|-0--------0--------0------------------|

 THEN DURING VOICE BOTH GUITARS          AFTER VOICE
|--------------------------------------|-----------------|
|--------------------------------------|-----------------|
|-----------------------------------9~~|-----------------|
|-----9-10-----9-10-----9-10---9-10----|-7-8-(8)--------|
|---7--------8--------7------8---------|-7-8-(8)--------|
|-0--------0--------0------------------|-5-6-(6)-3-1-0-1|

AFTER THAT REPEAT RIFF 1 W/BOTH GUITARS THEN PLAY

 RIFF 2
|-----------------|---------------------------------------------------------|
|-----------------|---------------------------------------------------------|
|-----------------|---------------------------------------------------------|
|-7-8-(8)--------|--------1-------------2-------------3--------(8)--------|
|-7-8-(8)--------|-2------1-------------2-------------3--------(8)--------|
|-5-6-(6)-3-1-0-1|-0--0-0---0-0-3-1-0-1---0-0-3-1-0-3---0-0-5-6(6)-3-1-0-1|

 RIFF 3 WHEN TOM STARTS SINGING
|----------------------------------------------------------------------|
|----------------------------------------------------------------------|
|----------------------------------------------------------------------|
|-----------------------------------------------------7-8-(8)---------|
|-2------(2)--------------------2------(2)------------7-8-(8)---------|
|-0------(0)------------3-1-0-1-0------(0)------------5-6-(6)--3-1-0-1|


 THEN PLAY RIFF 1 W/BOTH GUITARS AND RIFF 3 AGAIN AFTER PLAY THIS

 RIFF 4 (BRIDGE RIFF)
|---------------------------|-----------------------------|
|---------------------------|-----------------------------|
|--------------------8------|-----------------------------|
|-----------9--8~------9----|----------9--8~-(8)--3--5--2|
|--------7---------------10-|--------7-------------3--5--2|
|-0----0-----------0--------|-0----0---------------1--3--0

 GUITAR SOLO
|----------------------------------------------------------------------5///|
|--------------------------------------------------------------------------|
|---------------------------------------------------11H14P11-12-(12)~~-----|
|-------------------11H12P11---------------11H12H14------------------------|
|----------10H12H14----------14---10H12H14---------------------------------|
|-10H12H14-----------------------------------------------------------------|


|-/17P16-17P16-13P12-17P16-17P16-13P12|
|-------------------------------------|
|-------------------------------------|
|-------------------------------------|
|-------------------------------------|
|-------------------------------------|

|------------------------------------------------------|
|-17P15-17P15-13P12-17P15-17P15-13P12------------------|
|-------------------------------------16P14-16P14-13P11|
|------------------------------------------------------|
|------------------------------------------------------|
|------------------------------------------------------|





|------------------------------------------|
|------------------------------------------|
|-16P14-16P14-13P11------------------------|
|-------------------15P14-15P14-12P10------|
|-------------------------------------15P14|
|------------------------------------------|


|----------------------------12--17--12---------|
|------------------------15--------------15----^|
|--------------------14----------------------14F|
|---------------^-------------------------------|
|-15P14-12P10-12F-------------------------------|
|-----------------------------------------------|




|--^----^---^----------------|
|-/---/--/----------------|
|^----^---^----(14)GR--------|
|----------------------------|
|-----------------------X\-|
|----------------------------|

|----------------------------------------------------------------|
|--------------------------------------------------------12H13H15|
|-----------------------------------------------12H13H15---------|
|-----------------------------------12H14P12H14------------------|
|-9H10H12-9H10H12-12H13H15-12H13H15------------------------------|
|----------------------------------------------------------------|


|----------12H13P12H13P12---------------------^---^---^--|
|-12H13H15----------------15P13P12-13P12P10-12B-12B-12B-|
|--------------------------------------------------------|
|--------------------------------------------------------|
|--------------------------------------------------------|
|--------------------------------------------------------|


|-------------------------------------------------------------------------|
|-13P9H13P96P0H6H9/13P9H13P96P0H6H9/13P9H13P96P0H6H8/12P8H12P86P0H6H9/|
|-------------------------------------------------------------------------|
|-------------------------------------------------------------------------|
|-------------------------------------------------------------------------|
|-------------------------------------------------------------------------|


|-------------------------------------------------------------------------|
|-13P9H13P96P0H6H9/13P9H13P96P0H6H8/12P8H12P86P0H3H6/10P6H10P63P0H3H6/|
|-------------------------------------------------------------------------|
|-------------------------------------------------------------------------|
|-------------------------------------------------------------------------|
|-------------------------------------------------------------------------|


|--------------------------16|
|-/12---12~~~~~~-10--12/17---|
|----------------------------|
|----------------------------|
|----------------------------|
|----------------------------|

                                                      pick slide

|-19P17P16-19P17P16-18P16P15-17P15P14-16P14P13-15P13P12------|
|-------------------------------------------------------X---|
|------------------------------------------------------------|
|------------------------------------------------------------|
|------------------------------------------------------------|
|------------------------------------------------------------|

|-------------------------------------|
|-------------------------------------|
|------------------------------8h10h12|
|----------------7h8h10-7h8h10--------|
|-7h9h10-9h10h12----------------------|
|-------------------------------------|

|------------------------------------------------^----|
|---------------------------------------------^-15----|
|-8h10h12-9h11h13-9h11h13-10h11h13/15h13h15-17f-17f-17|
|-----------------------------------------------------|
|-----------------------------------------------------|
|-----------------------------------------------------|

         __________

|------^----------^------^--^-|
|-15-18b----------18--18b-/--|
|-----------------------------|
|-----------------------------|
|-----------------------------|
|-----------------------------|

                               ^^^^^^^^^^^^^^^^^^^^^^^^^
                                     pull bar up
|----------------------------------------------------|
|-18p15-18p1513-15p13-15----------------(15)--------|
|----------------------------------------------------|
|----------------------------------------------------|
|----------------------------------------------------|
|----------------------------------------------------|


|------------------------------------------------------|
|------------------------------------------------------|
|------------------------------------------------------|
|--------------2h4h5-----2h5/7-----4h5h7/9-----6h7h9/10|
|--5-----2h3h5-------3h5-------5h7---------7h9---------|
|----3h5-----------------------------------------------|

|-----------------------------------------------|
|-----------------------------------------------|
|------------------------------11------8h9h11/12|
|------7h8h10/12-------11h12h1----9h11----------|
|-8h10-----------12h14--------------------------|
|-----------------------------------------------|

|-----------------------------------|
|-----------------------------------|
|-------9h10h12/13-------10h11h13/14|
|-10h12------------11h12------------|
|-----------------------------------|
|-----------------------------------|


|---------------------------------------------------------------------|
|------------------------------------------15------------------------^|
|----------11h12-9-11h12h14p12/17p14h16h17----17p16p14h16p14----14-16b|
|-11h12h14---------------------------------------------------17-------|
|---------------------------------------------------------------------|
|---------------------------------------------------------------------|
     --------------
|-----------------------------------------------------------|
|---^---------------^------------^--------------------------|
|-16b-16--16--16--16b---16--14-(14f)-(14)--11h12p11-14p12p11|
|-----------------------------------------------------------|
|-----------------------------------------------------------|
|-----------------------------------------------------------|

  Use Bar
|---------------------------------|
|----------------------------(14)-|
|---------------------------------|
|-14p12p11-14p12p11---------------|
|---------------------------------|
|---------------------------------|


|-----------------------------------------------------------|
|-(14)-----------------------------------------------------|
|------------------------------------------------------14---|
|--------------------------------12(12)/14h15h17p15h17----17|
|-----------------12----12-14h15----14----------------------|
|--------12h13h15----15-------------------------------------|

|------------------------17-(17)|
|----------------19b-19F-19f(19)|
|-14/16-19p17h19-19F-19F--------|
|-------------------------------|
|-------------------------------|
|-------------------------------|

Other versions of Dead Skin Mask

Dead skin maskTabs

Almost there ...

Sign in to get your own page with links to favourite songs and more. You are just one click away...

Login with Facebook Login with Google