Log in

One click and you are in

Login with Facebook Login with Google

Why sign up and log in

Guitar Tabs Explorer
Slayer guitar tabs for Criminally insane

Guitar tabs with lyrics

SLAYER
                CRIMINALLY INSANE
        transcribed by Grzegorz Musialik (grg@giga.com.pl)
 Guitar is tuned (low to high) Eb,Ab,Db,Gb,Bb,Eb.

 intro: drums

  fig. 1 (play 2 times) :

Eb:-----------------------------------------------|
Bb:-----------------------------------------------|
Gb:-----------------------------------------------|
Db:-----------------------------------------------|
Ab:-2-----------5------------2----------5---------|
Eb:-2--2--2--2-----2--2--2---2--2--2--2---2--2--2-|

   fig. 2 :

Eb:------------------------------------------------|
Bb:------------------------------------------------|
Gb:------------------------------------------------|
Db:------------------------------------------------|
Ab:-3-----------6------------3-----------6---------|
Eb:-3--3--3--3-----3--3--3---3--3--3--3----3--3--3-|


 play fig 1
 play fig 2
 play fig 1 (2 times)

  fig 3 (play 3 times) :

Eb:----------------------------------------------------|
Bb:----------------------------------------------------|
Gb:----------------------------------------------------|
Db:----------------------------------------------------|
Ab:-2------------3------------3--5---------5--6--------|
Eb:-0--0--0--0---1--0--0--0---1--3--0--0---3--4--0--0--|

  fig 4:

Eb:------------------------------------------------------|
Bb:------------------------------------------------------|
Gb:------------------------------------------------------|
Db:------------------------------------------------------|
Ab:-2------------3------------3--5---------5--6----------|
Eb:-0--0--0--0---1--0--0--0---1--3---------3--4----------|

  fig 5 (play 5 times) :

Eb:-----------------------------------|---------------------------------|
Bb:-----------------------------------|---------------------------------|
Gb:-----------------------------------|---------------------------------|
Db:-----------------------------------|---------------------------------|
Ab:-2----------------3----------------|-3---5------------4--6-----------|
Eb:-0--0-0--0-0-0-0--1--0-0--0-0-0-0--|-1---3---0-0-0-0--3--4--0-0-0-0--|

  fig 6 (play 4 times) :

Eb:------------------------------------|------------------------------------|
Bb:------------------------------------|------------------------------------|
Gb:------------------------------------|------------------------------------|
Db:------------------------------------|------------------------------------|
Ab:------------------------------------|------------------------------------|
Eb:-1-1-1-1--1-1-1-1--1-1-1-1--2-2-2-2-|-2-2-2-2--4-4-4-4--5-5-5-5--0-0-0-0-|

                                                                    ^ ^ ^ ^
                                                                   don't play
                                                                   4th time

Eb:-------------------------------|-----------------------------|
Bb:-------------------------------|-----------------------------|
Gb:-------------------------------|-----------------------------|
Db:-------------------------------|-----------------------------|
Ab:-2-----------------------------|----2--5---------4-6---------|
Eb:-0-----------------------------|----0--3---------3-4---------|
        (dive w/bar)

  play fig 5 (4 times, last time without last beat )

Eb:--------------------------------|
Bb:--------------------------------|
Gb:--------------------------------|
Db:--------------------------------|
Ab:-2--3--5--5---------5-----------|
Eb:-0--1--3--3---------3-----------|

  fig 7 (play 6 times) :

Eb:-------------------------------------|----------------------------------|
Bb:-------------------------------------|----------------------------------|
Gb:-------------------------------------|----------------------------------|
Db:-------------------------------------|----------------------------------|
Ab:-------------------------------------|-3--5-------------4--6------------|
Eb:-1-1-1-1--1-1-1-1--0-0-0-0--0-0-0-0--|-1--3---0-0-0-0---3--4---0-0-0-0--|

  play fig 6 (4 times)

Eb:-------------------------------------|
Bb:-------------------------------------|
Gb:-------------------------------------|
Db:-------------------------------------|
Ab:-2-----------------------------------|
Eb:-0-----------------------------------|

   fig 8 (play 8 times) :

Eb:----------------------------------|   (from 5th time gtr II plays fig 8
Bb:----------------------------------|   one octave higher)
Gb:----------------------------------|
Db:----------------------------------|
Ab:------------------2-1-------2-1---|
Eb:--0-3-2-0-3-2-0-3-----2-0-3-----2-|

  play fig 3 (4 times)
  play fig 4
  play fig 5 (3 times)

Eb:---------------------------------|--------------------------------|
Bb:---------------------------------|--------------------------------|
Gb:---------------------------------|--------------------------------|
Db:---------------------------------|--------------------------------|
Ab:-2---------------3---------------|-3---5-----------5--6-----------|
Eb:-0--0-0--0-0-0-0-1--0-0--0-0-0-0-|-1---3-----------3--4-----------|

Almost there ...

Sign in to get your own page with links to favourite songs and more. You are just one click away...

Login with Facebook Login with Google