Log in

One click and you are in

Login with Facebook Login with Google

Why sign up and log in

Guitar Tabs Explorer
Slayer guitar tabs for Crimanally insane

Solo tabs

solo 1
eb:16b-16b-16-19-16-19----16-19b-19-16h19p16----------------------------------------|
Bb:19b-19b-------------19--------------------19-16-17-16----------------------------|
Gb:------------------------------------------------------18-15-14-15----------------|
Db:------------------------------------------------------------------18-15-14-15----|
Ab:------------------------------------------------------------------------------18-|
Eb:---------------------------------------------------------------------------------|


eb:---------------------------------------------11-12-14--------------------|
Bb:-----------------------------9-12NH--9-10-12----------12-10-9-10---------|
Gb:---------------------9-11-12--------------------------------------12-10b-|
Db:-------------9-11-12-----------------------------------------------------|
Ab:-----9-10-12-------------------------------------------------------------|
Eb:9-12---------------------------------------------------------------------|



solo 2
:-------------------------------------13-14-16--15-16-18--22b--22b-19-20-19-|
:------------------10-11-13--13-14-16---------------------------------------|
:---------10-11-13----------------------------------------------------------|
:10-11-13-------------------------------------------------------------------|
:---------------------------------------------------------------------------|
:---------------------------------------------------------------------------|


pm...
:--------------------------------------------------------------------------|
:22-19-22b-22-19-20-19-----------------------------------------------------|
:----------------------21-18-19-18-----------------------------------------|
:----------------------------------21-19-18-19-----------------------3-4-6-|
:----------------------------------------------21-19-18-19-----------------|
:----------------------------------------------------------21-19-18--------|


:-------------------------------------------------------------------------|
:-------------------------------------------------------------------------|
:----------------------1-1-1-1h2p1-2-2-2-2h3p2-3-3-3-3h4p3-5-5-5-5h6p5-7-7|
:-------------------------------------------------------------------------|
:6-3-4-3--6-4-3-----------------------------------------------------------|
:---------------6-3~~~----------------------------------------------------|


eb:------------------------------------------------------------|
Bb:------------------------------------------------------------|
Gb:7-7h8-7-9-9-9-9h10p9-11-11-11-11h12p11-13-13-13-13-13h14p13-|
Db:------------------------------------------------------------|
Ab:------------------------------------------------------------|
Eb:------------------------------------------------------------|


                                                          bar
eb:--------------------------------------------------------------|
Bb:--------------------------------------------------------------|
Gb:15-15-15-15-15h16p15-17-17-17-17-17h18p17--20b~~~------2b-----|
Db:--------------------------------------------------------------|
Ab:--------------------------------------------------------------|
Eb:--------------------------------------------------------------|

Almost there ...

Sign in to get your own page with links to favourite songs and more. You are just one click away...

Login with Facebook Login with Google