Log in

One click and you are in

Login with Facebook Login with Google

Why sign up and log in

Guitar Tabs Explorer
Slayer bass tabs for Clut

Bass tabs

enter third time

intro
|--------------------------------|
|--------------------------------|
|--------------------------------|
|0--0------------0--0------9-8-10|

|----------------------------------|
|----------------------------------|
|----------------------------------|
|0--0------------0--0----0---9-8-10|

|-----------------------------------------------|
|-----------------------------------------------|
|-----------------------------------------------|
|0-0-0----------0-0-0----0-0-0----0-0-0---9-8-10|

pre verse 1
|------------------------------------------|
|------------------------------------------|
|------------------------------------------|
|0-3-2-0--0-0-0-0-0-0--0-4-3-0--0-0---2-0-1|

|------------------------------------------|
|------------------------------------------|
|------------------------------------------|
|0-4-3-0--0-0-0-0-0-0--0-3-2-0--0-0---2-0-1|

|------------------------------------------|
|------------------------------------------|
|------------------------------------------|
|0-3-2-0--0-0-0-0-0-0--0-4-3-0--0-0---2-0-1|

|------------------------------------------|
|------------------------------------------|
|------------------------------------------|
|0-4-3-0--0-0-0-0-0-0--0-3-2-0--0-0---2-0-1|

 pre verse 2/solo rest first time       (2x)
|------------------------------------------------------------------|
|------------------------------------------------------------------|
|------------------------------------------------------------------|
|0-3p1-00-2p1-0001p0-000-1-3---0-3p1-00-2p1-000-1p0-0002p1-000--3-2|

verse/solo 3                   (2x)
|-------------------------------------------------------|
|-------------------------------------------------------|
|-------------------------------------------------------|
|0000000000000-0-4p3h4-0-1-3--000000000000---0-3-0-2-0-3|


pre chores
play (8x)play 7 then 8th time add bass fill 1
(7x)         bass fill 1
|-------------------|-------------|
|-------------------|-------------|
|-------------------|-------------|
|111111111-4-3333333|111111111-4-3|


chorus/solo 1
|----------------------------------------|
|----------------------------------------|
|----------------------------------------|
|000000-3-444444-000-3333333-0-4444444444|


verse
pre chores

chorus
pre verse 1
pre verse 2

verse
pre chores
chores

verse

Almost there ...

Sign in to get your own page with links to favourite songs and more. You are just one click away...

Login with Facebook Login with Google