Log in

One click and you are in

Login with Facebook Login with Google

Why sign up and log in

Guitar Tabs Explorer
Slayer guitar tabs for Chasing death

Guitar tabs

Artist - Slayer
Song - Chasing Death
Composer - Kerry King
Album - Repentless
Year - 2015
Tuning - A chord diagramBB A chord diagramF#F# A chord diagramBB A chord diagramE MajorE A chord diagramG#G# A chord diagramC#C#

Listen to the song for the timing.
I could not tab the wah solo. Sorry!

. Palm Mute


Intro - Riff 1
C#--------------------------------------------------------------
G#--------------------------------------------------------------
E---------------------------------------------------------------
B---------------------------------------------------------------
F#--------5~---5-6-5---------------5~--5-6-5---5----------------
B--000000----0-------8-5-6~-000000---0-------8---6~-------------
   ......    .              ......   .                             X2

C#--------------------------------------------------------------
G#--------------------------------------------------------------
E---------------------------------------------------------------
B---------------------------------------------------------------
F#--------5~---5-6-5---------------5~--5-6-5---5-6--------------
B--000000----0-------8-5-6~-000000---0-------8------------------
   ......    .              ......   .


Riff 2
C#----------------------------------------
G#----------------------------------------
E-----------------------------------------  X4
B-----------------------------------------
F#--8\7-5/7--3-0-3/5--0-0-0-0-0-0-3\5-----
B---8\7-5/7--3-0-3/5--0-0-0-0-0-0-3\5-----
               .      . . . . . .

Riff 2a
C#---------------------------------------------------------------------
G#---------------------------------------------------------------------
E---------------------------------------------------------------------- X3
B----------------------------------------------------------------------
F#--8\7-5/7-3--0-3/5-0-0-3/5--8\7-5/7-8\7-5/7-3--0-3/5-0-0-0-0-0-0-3\5-
B---8\7-5/7-3--0-3/5-0-0-3/5--8\7-5/7-8\7-5/7-3--0-3/5-0-0-0-0-0-0-3\5-
               .     . .                         .     . . . . . .


Riff 2b
C#---------------------------------------------------------------------
G#---------------------------------------------------------------------
E---------------------------------------------------------------------- X1
B----------------------------------------------------------------------
F#--8\7-5/7-3--0-3/5-0-0-3/5--8\7-5/7-8\7-5/7-3--0-3/5-0-0-0-0-0-0-5/3-
B---8\7-5/7-3--0-3/5-0-0-3/5--8\7-5/7-8\7-5/7-3--0-3/5-0-0-0-0-0-0-5/3-
               .     . .                         .     . . . . . .


Riff 3
C#----------------------------------------
G#----------------------------------------
E----------------------------------------- X4
B-----------------------------------------
F#----------------------------------------
B---0-3-5-0-3-5-0-3-5-0-8-5-6-5-3-5-------
    . . . . . . . . . . . . . . . .


Riff 4
C#----------------------------------------
G#----------------------------------------
E----------------------------------------- X4
B-----------------------------------------
F#--0~--0-3-5-6-5-3-5-0~------------------
B---0~--0-3-5-6-5-3-5-0~------------------


Riff 5
C#----------------------------------------
G#----------------------------------------
E----------------------------------------- X4
B-----------------------------------------
F#------5---6---5---3-5-------------------
B---000---0---0---0-----0-0-0-0-0-0-------
    ...   .   .   .     . . . . . .


Riff 6a
C#----------------------------------------------------------------------
G#----------------------------------------------------------------------
E----------------------------------------------------------------------- X3
B-----------------------------------------------------------------------
F#-------5---5---6-5-6-8--6-5-6-8--------5---5---6-5-6-8--6-5-3-5-------
B---0000---0---0--------------------0000---0---0-----6-8--6-5-3-5-------
    ....   .   .     .              ....   .   .


Riff 6b
C#----------------------------------------------------------------------
G#----------------------------------------------------------------------
E----------------------------------------------------------------------- X1
B-----------------------------------------------------------------------
F#-------5---5---6-5-6-8--6-5------------5---5---6-5-6-8--6-5-3-5-------
B---0000---0---0--------------6-8---0000---0---0-----6-8--6-5-3-5-------
    ....   .   .     .              ....   .   .


Riff 7a
C#------------------------------------------------------------------------
G#------------------------------------------------------------------------
E------------------------------------------------------------------------- X3
B-------------------------------------------------------------------------
F#------5---6---5---6-5-6-8-6-5-6-8------5---6---5---3--5-----------------
B---000---0---0---0------------------000---0---0---0------0-0-0-0-0-0-----
    ...   .   .   .     .            ...   .   .   .      . . . . . .


Riff 7b
C#------------------------------------------------------------------------
G#------------------------------------------------------------------------
E------------------------------------------------------------------------- X1
B-------------------------------------------------------------------------
F#------5---6---5---6-5-6-8-6-5-6-8------5---6---5---3--5-----------------
B---000---0---0---0------------------000---0---0---0----------------------
    ...   .   .   .     .            ...   .   .   .


Please let me know for any corrections.
Thank you!!

Almost there ...

Sign in to get your own page with links to favourite songs and more. You are just one click away...

Login with Facebook Login with Google