Log in

One click and you are in

Login with Facebook Login with Google

Why sign up and log in

Guitar Tabs Explorer
Slayer guitar tabs for Catatonic

Guitar tabs

tuning 1=C# 2=G# 3=E 4=B 5=F# 6=B


intro

C#|------------------------------------------------------|
G#|------------------------------------------------------|
A chord diagramE MajorE |------------------------------------------------------|
A chord diagramBB |----------------0--0-0-------------------------6--6---|
F#|---7-6-7-6-7-6--0--0-0----7-6-7-6-7-6-7/11--6-7--7-6--|  x4
A chord diagramBB |----------------0--0-0--------------------------------|
PM                    . .

    first verse
C#|-----------------------------------|
G#|-----------------------------------|
A chord diagramE MajorE |-----------------------------------|
A chord diagramBB |-----------------------------------|
F#|-------------------------------6-7-|
A chord diagramBB |--0000--00-0000--0000--00-0000-----|


Chorus

C#|--------------------------------|
G#|--------------------------------|
A chord diagramE MajorE |--------------------------------|
A chord diagramBB |--0-2-3------0-4-3-2------------|
F#|--0-2-3--x3--0-4-3-2------------|
A chord diagramBB |--0-2-3------0-4-3-2------------|
PM   . . .      . . . .

"My blood soaked hands devise........."

             Heavy
C#|--------------------------------|
G#|--------------------------------|
A chord diagramE MajorE |--------------------------------|
A chord diagramBB |--0-3-5--0-3-6------------------| listen the song
F#|--0-3-5--0-3-6------------------|
A chord diagramBB |--0-3-5--0-3-6------------------|

 Next verse
C#|-----------------------------------|
G#|-----------------------------------|
A chord diagramE MajorE |-----------------------------------|
A chord diagramBB |-----------------------------------|
F#|-------------------------------6-7-|
A chord diagramBB |--0000--00-0000--0000--00-0000-----|

Then
"Embrace it....."
C#|--------------------------------|
G#|--------------------------------|
A chord diagramE MajorE |--------------------------------|
A chord diagramBB |--0-2-3------0-4-3-2------------|
F#|--0-2-3--x3--0-4-3-2------------|
A chord diagramBB |--0-2-3------0-4-3-2------------|
PM   . . .      . . . .

then

C#|-----------------------------------|
G#|-----------------------------------|
A chord diagramE MajorE |-----------------------------------|
A chord diagramBB |-----------------------------------|  x8
F#|-----6-7-6-7----6-7-9-7-6----------|
A chord diagramBB |--00---------00--------------------|
PM   ..         ..

when plays the solo the other guitar play this

        Heavy
C#|--------------------------------|
G#|--------------------------------|
A chord diagramE MajorE |--------------------------------|
A chord diagramBB |--0-3-5--0-3-6------------------|
F#|--0-3-5--0-3-6------------------|  listen the song
A chord diagramBB |--0-3-5--0-3-6------------------|

after the solo
This part is very cool  HEAVY AND  FAST
C#|--------------------------------------------------------|
G#|--------------------------------------------------------|
A chord diagramE MajorE |--------------------------------------------------------|
A chord diagramBB |--------------------------------------------------------| listen the song
F#|--------------------------------------------------------|
A chord diagramBB |000000-00 000000-000000-00000--x2--111111111-11-1111111-|

Then

C#|--------------------------------|
G#|--------------------------------|
A chord diagramE MajorE |--------------------------------|
A chord diagramBB |--0-2-3------0-4-3-2------------|
F#|--0-2-3--x3--0-4-3-2------------|
A chord diagramBB |--0-2-3------0-4-3-2------------|
PM   . . .      . . . .

Then

                Heavy
C#|--------------------------------|
G#|--------------------------------|
A chord diagramE MajorE |--------------------------------|
A chord diagramBB |--0-3-5--0-3-6------------------|listen the song
F#|--0-3-5--0-3-6------------------|
A chord diagramBB |--0-3-5--0-3-6------------------|

And finally

C#|--------------------------------------------------------|
G#|--------------------------------------------------------|
A chord diagramE MajorE |--------------------------------------------------------|
A chord diagramBB |--------------------------------------------------------| listen the song
F#|--------------------------------------------------------|
A chord diagramBB |000000-00 000000-000000-00000--x2--111111111-11-1111111-|


enjoy¡¡¡¡¡¡¡¡¡¡¡¡¡¡¡¡¡¡¡¡¡¡¡

any questions or comments to sk8360casperflip@hotmail.com

Almost there ...

Sign in to get your own page with links to favourite songs and more. You are just one click away...

Login with Facebook Login with Google