Log in

One click and you are in

Login with Facebook Login with Google

Why sign up and log in

Guitar Tabs Explorer
Slayer bass tabs for Cast down

Bass tabs

x:Amount of Times
h:Hammer-On


Tuned down 3 whole steps: B Standard Tuning
Intro 1A 1x
Come in on the third time
D: |---------------------------------------------------------------|
A: |---------------------------------------------------------------|
E: |---------------------------------------------------------------|
B: |6-0-0-0-6-0-0-0-5-0-0-0-4-0-0-0-6-0-0-0-5-0-0-0-4-0-0-0-4-0-0-0|

D: |-----------------------------------------------------------|
A: |-----------------------------------------------------------|
E: |-----------------------------------------------------------|
B: |6-0-0-0-6-0-0-0-5-0-0-0-4-0-0-0-6-0-0-0-5-0-0-0-4-0-0-0-3-4|


Intro 1B 2x
D: |-----------------------------------|
A: |-----------------------------------|
E: |-----------------------------------|
B: |0-0--1-0--0-0--1-0--0-0--5-4--0-1|

Pre-Verse 7x
D: |---|
A: |---|
E: |---|
B: |0-0|


Verse 1A 4x
D: |----------------------|
A: |----------------------|
E: |1---------------------|
B: |-0-0-0-0--0-0-0--1-1-1|

Verse 1B 4x
D: |----------------------|
A: |----------------------|
E: |1---------------------|
B: |-0-0-0-0-0-3-0-0-0-0-0|

D: |--------------------|
A: |--------------------|
E: |1-------------------|
B: |-0-0-0-0-0-3-0--1--3|

Fill 1x
D: |-----------------------------|
A: |-----------------------------|
E: |-----------------------------|
B: |0----1--0----1--0h1-0h1-0h1|


Verse 1B 4x


Pre-Chorus 5x
D: |---------------------------|
A: |---------------------------|
E: |--1--0---------------------|
B: |0------0----3--6-5-3-0-3-2|


Chorus (Intro 1B) 2x


Break 7x
D: |---|
A: |---|
E: |---|
B: |0-0|


Solo 8x
D: |---|
A: |---|
E: |---|
B: |0-0|


Break 1x


Verse 1A 4x


Verse 1B 4x

Fill
D: |---------------------------------|
A: |---------------------------------|
E: |---------------------------------|
B: |0----1--0----1--0h1-0h1-0h1-0h1|


Pre-Chorus 8x


Chorus (Intro 1B) 2x


Break 1x

Almost there ...

Sign in to get your own page with links to favourite songs and more. You are just one click away...

Login with Facebook Login with Google