Log in

One click and you are in

Login with Facebook Login with Google

Why sign up and log in

Guitar Tabs Explorer
Slayer guitar tabs for Bloodline

Guitar tabs with lyrics

Band: Slayer
Album: Dracula 2000 Soundtrack/God Hates Us All
Tabbed By: Justin Plaunty ( godhatesusall@hotmail.com )

This is not perfect, but it sounds pretty damn close.

Tuning: A chord diagramDbDb A chord diagramGbGb A chord diagramCbCb A chord diagramE MajorE A chord diagramAbAb A chord diagramDbDb
       (A chord diagramC#C# A chord diagramF#F# A chord diagramBB  A chord diagramE MajorE A chord diagramG#G# A chord diagramC#C#)
P.M. = .
Riff A			Riff A chord diagramBB
|---------------------|---------------------|
|---------------------|---------------------|
|---------------------|---------------------|
|---------------------|---------------------|
|-2--2-2--2-4--4-3--3-|-2--2-2--2-4--245--5-|
|-0--0-3--3-2--2-1--1-|-0--0-3--3-2--023--3-|


Riff A chord diagramC majorC
|---------------|
|---------------|
|---------------|
|---------------|
|---------------|
|-000-0-000-000-|
  .............


Riff A chord diagramD MajorD
|-----------|
|---4-5-4-7-|
|-0-2-3-2-5-|
  .

Riff A chord diagramE MajorE
|----------------------|
|----------------------|
|----------------------|
|----------------------|
|----------------------|
|-0-0-7-6-5--5-8-5-7---|
  .........  .......


Riff A chord diagramFF
|-----------------|
|-----------------|
|-----------------|
|-9-8-7-----107-8-|
|-9-8-7-----107-8-|
|-7-6-5-0-0-8-5-6-|
        . .

I know riffs A chord diagramE MajorE and A chord diagramFF are probably wrong, so any help would be appreciated.
The solo is just Kerry muting the strings and using a cry baby wah, with a
little sliding on the first string.


Riff A chord diagramA majorA x3

Riff A chord diagramBB x5

Riff A chord diagramC majorC x6

Riff A chord diagramD MajorD

Riff A chord diagramC majorC x4

Riff A chord diagramD MajorD

Riff A chord diagramC majorC x4

Riff A chord diagramD MajorD

Riff A chord diagramC majorC x4

Riff A chord diagramD MajorD

Riff A chord diagramC majorC x4

Riff A chord diagramD MajorD

Riff A chord diagramA majorA

Riff A chord diagramBB

Riff A chord diagramA majorA

Riff A chord diagramBB

Riff A chord diagramC majorC x4

Riff A chord diagramD MajorD

Riff A chord diagramC majorC x4

Riff A chord diagramD MajorD

Riff A chord diagramC majorC x4

Riff A chord diagramD MajorD

Riff A chord diagramC majorC x4

Riff A chord diagramD MajorD

Riff A chord diagramC majorC x4

Riff A chord diagramD MajorD

Riff A chord diagramA majorA

Riff A chord diagramBB

Riff A chord diagramA majorA

Riff A chord diagramBB

Riff A chord diagramE MajorE x3

Riff A chord diagramFF x8 (w/ Solo)

Riff A chord diagramC majorC x2

Riff A chord diagramA majorA

Riff A chord diagramBB

Riff A chord diagramA majorA

Riff A chord diagramBB

Riff A chord diagramA majorA

Riff A chord diagramBB

Riff A chord diagramA majorA

Riff A chord diagramBB

The End.

Almost there ...

Sign in to get your own page with links to favourite songs and more. You are just one click away...

Login with Facebook Login with Google