Log in

One click and you are in

Login with Facebook Login with Google

Why sign up and log in

Guitar Tabs Explorer
Slayer guitar tabs for Blood line

Guitar tabs

Tuning:	D, G, C, F, A, A chord diagramD MajorD


Intro:
D:-------------------------------------------
A:-------------------------------------------
F:-------------------------------------------
C:-2-----------------------------------------
G:-2--2-5--5-4--4-3--3-----------------------
D:-0--0-3--3-2--2-1--1-----------------------
Chorus:
D:-------------------------------------------
A:-------------------------------------------
F:-------------------------------------------
C:-2-------------------2---------------------
G:-2--2-5--5-4--4-3--3-2--2-5--5-4--2-4-5--3-
D:-0--0-3--3-2--2-1--1-0--0-3--3-2--0-2-3--1-


Verse:
(Part 1)
D:-------------------------------------------
A:-------------------------------------------
F:-------------------------------------------
C:-------------------------------------------
G:-3-2-2-2--3-2-2-2-2--3-2-2-----------------
D:-1-0-0-0--1-0-0-0-0--1-0-0-----------------

(Part 2)
D:-------------------------------------------
A:-------------------------------------------
F:-------------------------------------------
C:-------------------------------------------
G:-2-3-5-6-8---------------------------------
D:-0-1-3-4-6---------------------------------

Interlude:
D:-------------------------------------------
A:-------------------------------------------
F:-------------------------------------------
C:-------------------------------------------
G:-----2-1-0-3-6-5-4-------------------------
D:-1-3---------------------------------------


Bridge/Solo Backing:
D:-------------------------------------------
A:-------------------------------------------
F:-------------------------------------------
C:-------------------------------------------
G:-2-3-6-5-4--2-3-9-8-7----------------------
D:-0-1-4-3-2--0-1-7-6-5----------------------


Solo:
Just a bunch of pick slides and harmonics while using a wah pedal

Breakdown:
D:-------------------------------------------
A:-------------------------------------------
F:-------------------------------------------
C:-5-4-4-4-----------------------------------
G:-5-4-4-4-----------------------------------
D:-3-2-2-2-----------------------------------

Almost there ...

Sign in to get your own page with links to favourite songs and more. You are just one click away...

Login with Facebook Login with Google