Log in

One click and you are in

Login with Facebook Login with Google

Why sign up and log in

Guitar Tabs Explorer
Slayer guitar tabs for Black magic

Guitar tabs

SLAYER

"Black Magic"


h.....Hammer On
PM....Palm Muted
~.....Tremolo-Bar
/.....Slide

Fade in picking some A chord diagramE MajorE

|------------------------------------------------------------------------------|
|------------------------------------------------------------------------------|
|------------------------------------------------------------------------------|
|--------------------------------------------------------------------------X4--|
|-------7~------7h8---7h8-10-8-5-8-7-------------------------------------------|
|--0000----0000-----0----------------------------------------------------------|
PM ....    ....     .


|------------------------------------------------------------------------------|
|------------------------------------------------------------------------------|
|------------------------------------------------------------------------------|
|-------9-----9/10-------9------5/7----------------------------------------X4--|
|-------7-----7/8--------7------3/5--------------------------------------------|
|--0000---0000------0000---0000------------------------------------------------|
PM ....   ....      ....   ....


|------------------------------------------------------------------------------|
|------------------------------------------------------------------------------|
|------------------------------------------------------------------------------|
|--------------------------------------------------------------------------X2--|
|-------7~------7h8---7h8-10-8-5-8-7-------------------------------------------|
|--0000----0000-----0----------------------------------------------------------|
PM ....    ....     .

|------------------------------------------------------------------------------|
|------------------------------------------------------------------------------|
|------------------------------------------------------------------------------|
|--9------9-9-10-9-------12-11-10-9------9-9-10-9-------------------------X2---|
|--7------7-7-8--7-------10-9--8--7------7-7-8--7--------5-4-3-2---------------|
|----0000----------0000-------------0000-----------0000--3-2-1-0---------------|
PM   ....          ....             ....           ....


|------------------------------------------------------------------------------|
|------------------------------------------------------------------------------|
|------------------------------------------------------------------------------|
|--9------9-9-10-9-------12-11-10-9------9-9-10-9--------------------------X1--|
|--7------7-7-8--7-------10-9--8--7------7-7-8--7--------5-4-3-2---------------|
|----0000----------0000-------------0000-----------0000--3-2-1-0---------------|
PM   ....          ....             ....           ....
   Cursed                We've been struck down
          Black magic night              Down in this Hell


|------------------------------------------------------------------------------|
|------------------------------------------------------------------------------|
|------------------------------------------------------------------------------|
|--------------------------------------------------------------------------X1--|
|--4444--6666---------1111--2222-----------------------------------------------|
|------------------------------------------------------------------------------|
   Spells surround me day and night
                       Stricken by the force of evil light


|------------------------------------------------------------------------------|
|------------------------------------------------------------------------------|
|------------------------------------------------------------------------------|
|--9------9-9-10-9-------12-11-10-9------9-9-10-9--------------------------X1--|
|--7------7-7-8--7-------10-9--8--7------7-7-8--7--------5-4-3-2---------------|
|----0000----------0000-------------0000-----------0000--3-2-1-0---------------|
PM   ....          ....             ....           ....
                         The force of evil light


|------------------------------------------------------------------------------|
|------------------------------------------------------------------------------|
|------------------------------------------------------------------------------|
|--9------9-9-10-9-------12-11-10-9------9-9-10-9--------------------------X1--|
|--7------7-7-8--7-------10-9--8--7------7-7-8--7--------5-4-3-2---------------|
|----0000----------0000-------------0000-----------0000--3-2-1-0---------------|
PM   ....          ....             ....           ....
   Cast                  Blinding my eyes
          Under his spell                Twisting my mind


|------------------------------------------------------------------------------|
|------------------------------------------------------------------------------|
|------------------------------------------------------------------------------|
|--------------------------------------------------------------------------X1--|
|--4444--6666---------1111--2222-----------------------------------------------|
|------------------------------------------------------------------------------|
  Fight to resist the evil inside
                      Captive of a force of Satan's might


|------------------------------------------------------------------------------|
|------------------------------------------------------------------------------|
|------------------------------------------------------------------------------|
|--9------9-9-10-9-------12-11-10-9------9-9-10-9--------------------------X1--|
|--7------7-7-8--7-------10-9--8--7------7-7-8--7--------5-4-3-2---------------|
|----0000----------0000-------------0000-----------0000--3-2-1-0---------------|
PM   ....          ....             ....           ....
                         A chord diagramA augmentedA force of Satan's might


|------------------------------------------------------------------------------|
|------------------------------------------------------------------------------|
|------------------------------------------------------------------------------|
|--------------12----11----10~--------------------------12----11----10~--------|
|-121212121212---1212--1212----------------121212121212---1212--1212-----------|
|------------------------------------------------------------------------------|
PM. . . . . .    . .   . .                 . . . . . .    . .   . .
  Fighting the curse                       Break it I must


|------------------------------------------------------------------------------|
|------------------------------------------------------------------------------|
|------------------------------------------------------------------------------|
|--------------12----11----10~--------------------------12----11----10~--------|
|-121212121212---1212--1212----------------121212121212---1212--1212-----------|
|------------------------------------------------------------------------------|
PM. . . . . .    . .   . .                 . . . . . .    . .   . .
Laughing in sorrow                         Crying in lust


|------------------------------------------------------------------------------|
|------------------------------------------------------------------------------|
|------------------------------------------------------------------------------|
|--------------------------------------------------------------------------X4--|
|-------7~------7h8---7h8-10-8-5-8-7-------------------------------------------|
|--0000----0000-----0----------------------------------------------------------|
PM ....    ....     .



<SOLO 1>



|------------------------------------------------------------------------------|
|------------------------------------------------------------------------------|
|------------------------------------------------------------------------------|
|-------------------9-10------------------------9-9/10---------------------X2--|
|-------------------7-8-------------------------7-7/-8-------------------------|
|-0-000-0-000-0-000-----------0-000-0-000-0-000--------------------------------|
PM  ...   ...   ...             ...   ...   ...


|------------------------------------------------------------------------------|
|------------------------------------------------------------------------------|
|------------------------------------------------------------------------------|
|-------------------9-10------------------------9-9/10---------------------X1--|
|-------------------7-8-------------------------7-7/-8-------------------------|
|-0-000-0-000-0-000-----------0-000-0-000-0-000--------------------------------|
PM  ...   ...   ...             ...   ...   ...
  My strength slips away  Soon I must fall
                              Victim of fortune  My sources grow small


|------------------------------------------------------------------------------|
|------------------------------------------------------------------------------|
|------------------------------------------------------------------------------|
|-------------------9-10------------------------9-9/10---------------------X1--|
|-------------------7-8-------------------------7-7/-8-------------------------|
|-0-000-0-000-0-000-----------0-000-0-000-0-000--------------------------------|
PM  ...   ...   ...             ...   ...   ...
   Life slips away  As demons come forth
                              Death takes my hand  And captures my soul


<GTR.1 SOLO2>


GTR.2
|------------------------------------------------------------------------------|
|------------------------------------------------------------------------------|
|------------------------------------------------------------------------------|
|--9------9-9-10-9-------12-11-10-9------9-9-10-9--------------------------X2--|
|--7------7-7-8--7-------10-9--8--7------7-7-8--7--------5-4-3-2---------------|
|----0000----------0000-------------0000-----------0000--3-2-1-0---------------|
PM   ....          ....             ....           ....


OUTRO
|------------------------------------------------------------------------------|
|------------------------------------------------------------------------------|
|------------------------------------------------------------------------------|
|--9-9-9-9-9-9-9-9-9---9-10-9-12~------------------------------------------X1--|
|--7-7-7-7-7-7-7-7-7---7-8--7-10~----------------------2-----------------------|
|------------------------------------------------------0-----------------------|
                              let ring



INFOS:
Album:  SHOW NO MERCY
Title:  BLACK MAGIC
Year:   1983

Almost there ...

Sign in to get your own page with links to favourite songs and more. You are just one click away...

Login with Facebook Login with Google