Log in

One click and you are in

Login with Facebook Login with Google

Why sign up and log in

Guitar Tabs Explorer
Slayer bass tabs for Behind the crooked cross

Bass tabs with lyrics

Behind the Crooked Cross
     Performed by: Slayer
     From the album: South of Heaven
     Tabbed by: James Zamora (misterz@earthlink.net)

     Tuning: Eb,Ab,Db,Gb

     (4x)

|-------------------------------||---------------------------------------|
|-------------------------------||---------------------------------------|
|-------------------------------||---/4-----3----------------------------|
|--2----2----2----2-----2-2-----||-----------------5---4-----3--4--3-----|
     this beat follows bass drum

     Fig. 1
     |---------------------------------------------|
     |---------------------------------------h-----|
     |--------------------------------------4-5----|
     |--2--2---2--2---2--2---2--2---2-2------------|

     |---------------------------------------------|
     |---------------------------------------------|
     |---------------------------------------1-----|
     |--2--2---2--2---2--2---2--2---2-2------------|
     this beat also follows the bass drum

     1st Verse w/Fig. 1 (4x)

     |-----------------------------|
     |-----------------------------|
     |---/4--3---------------------|
     |-----------5---4---3--4--3---|

     Fig. 2
     |--------------------------|-----------------------------|
     |--------------------------|-----------------------------|
     |--------------------------|---/4--3---------------------|
     |---2---2---2---2---2-2----|---------5---4---3--4--3-----|

     1st Chorus w/Fig. 2 (3x)

     Fig. 1 (2x)

     2nd Verse w/Fig. 1 (4x)

     |-------------------------------|
     |-------------------------------|
     |---/4---3----------------------|
     |------------5---4---3--4--3----|

     2nd Chorus w/Fig. 2 (3x)

     Fig. 3
     |-------------------------------------------|
     |-------------------------------------------|
     |------4------4------3------3---------------|
     |---2------2------2------2-------5--5--4----|

     Guitar Solo I & II w/Fig. 3 (8x)

|----------------------------------------------------------------------------|
|----------------------------------------------------------------------------|
|---------------------------------------4--4---3--3----------4--4---3--3-----|
|---5--5--4----------5--5--4-------------------------------------------------|

     Guitar Solo III & IV w/Fig. 3 (8x)

     |-------------------------------|
     |-------------------------------|
     |---/4---3----------------------|
     |-------------5---4---3--4--3---|

     3rd Verse w/Fig. 1 (4x)

     |------------------------------|
     |------------------------------|
     |---/4---3---------------------|
     |------------5---4---3--4--3---|

     3rd Chorus w/Fig. 2 (3x)

     End of song. Pretty easy song to play. Just follow bass drum on intro
     and verses. As for guitar solos, follow rhythm guitar. This song is

Almost there ...

Sign in to get your own page with links to favourite songs and more. You are just one click away...

Login with Facebook Login with Google