Log in

One click and you are in

Login with Facebook Login with Google

Why sign up and log in

Guitar Tabs Explorer
Slayer guitar tabs for Atrocity vendor

Guitar tabs with lyrics

Slayer - Atrocity Vendor
World Painted Blood (Bonus Track)

Tune Down Half Step

+ = Palm Muted

The Song is Truly Amazing, First time i heard it full, i had to learn it! I
Strongly Suggest you listen to song for Timing!

I Learned this all by ear (Along W/ Sudden Death by Megadeth)For My Age, thats pretty Amazing
Intro
|-----------------------------------|
|-----------------------------------|
|-----------------------------------|
|--7-5---4----4----4----4----4----4-|X4
|------7---77---77---77---77---77---|
|-----------------------------------|
           ++   ++   ++   ++   ++

|---------------------------------------------|
|---------------------------------------------|
|---------------------------------------------|
|-7-5---4-----5-4---4-----7-5---4-------4-5-4-|X2
|-----7-----------7-----------7-------7-------|
|---------------------------------------------|

Left Guitar
|----------------------------------|
|----------------------------------|
|----------------------------------|
|-5-4---4-3---3-2---2-3-2-1--------|
|-----5-----4-----3---------1-0~~~~|
|----------------------------------|

Right Guitar
|----------------------------------|
|----------------------------------|
|----------------------------------|
|----------------------------------|
|-5-4---4-3---3-2---2-3-2-1--------|
|-----5-----4-----3---------1-0~~~~|


Verse
|---------|
|---------|
|---------|
|---------|X5
|-6---7---|
|-4---5---|


Chorus
|----------------------------------------|
|----------------------------------------|
|----------------------------------------|
|----------------------------------------|X2
|----------------------------------------|
|111111111-444444444-000000000-222222222-|
 +++++++++ +++++++++ +++++++++ +++++++++

|----------------|
|----------------|
|----------------|
|----------------|X4
|----------------|
|-111-444-000-222|
  +++ +++ +++ +++

|-----------------------------------------|
|-----------------------------------------|
|-----------------------------------------|
|-----------------------------------------|x3
|-----------------------------------------|
|-333333333-000000000-444444444-000000000-|
  +++++++++ +++++++++ +++++++++ +++++++++

After that is a solo which the lead i couldn't find out
|---------------------------------------------|
|---------------------------------------------|
|---------------------------------------------|
|---------------------------------------------|X4
|---------------------------------------------|
|00000-3-4-00000000000000000000000000000000000|

-------------|
-------------|
-------------|
-------------|
-4--5--6-----|
-2--3--4-----|

Than Repeat Verse, Chorus, and Rhythm until 2:12 (See Video of Song for Help)

2:12

Verse
|---------|
|---------|
|---------|
|---------|X5
|-6---7---|
|-4---5---|


Chorus
|----------------------------------------|
|----------------------------------------|
|----------------------------------------|
|----------------------------------------|X2
|----------------------------------------|
|111111111-444444444-000000000-222222222-|
 +++++++++ +++++++++ +++++++++ +++++++++

|----------------|
|----------------|
|----------------|
|----------------|X4
|----------------|
|-111-444-000-222|
  +++ +++ +++ +++

|-----------------------------------------|
|-----------------------------------------|
|-----------------------------------------|
|-----------------------------------------|x3
|-----------------------------------------|
|-333333333-000000000-444444444-000000000-|

"...Death Forever"
|----------------------------------------|
|----------------------------------------|
|----------------------------------------|
|----------------------------------------|X2
|----------------------------------------|
|111111111-444444444-000000000-222222222-|
 +++++++++ +++++++++ +++++++++ +++++++++

|----------------|
|----------------|
|----------------|
|----------------|X4
|----------------|
|-111-444-000-222|
  +++ +++ +++ +++

STRONG SUGGESTED TO LISTEN TO SONG FOR TIMING

Almost there ...

Sign in to get your own page with links to favourite songs and more. You are just one click away...

Login with Facebook Login with Google