Log in

One click and you are in

Login with Facebook Login with Google

Why sign up and log in

Guitar Tabs Explorer
Slayer guitar tabs for At dawn they sleep

Guitar tabs with lyrics

At Dawn They Sleep - Slayer

****************************************************************************

At Dawn They Sleep by Slayer. There was already a tab of this, but it was not really
So here's the complete version. Kerry King at the top, and Jeff Hanneman below. Again, the
are at the bottom. Have fun.

****************************************************************************

Kerry King Lead Guitar
              S S S S S S S S S S S S S S S S S S S S
A chord diagramC majorC ||-------|------------------------------------------|
A chord diagramG MajorG ||-------|------------------------------------------|
D#||-------|----------5-4-----------------------------|
A#||-------|--------6-------------5-4-----------------|
A chord diagramFF ||-------|--------------------6-------------4-3-----|
A chord diagramC majorC ||-------|--0-0-0-------0-0-0-------0-0-0-5-----4-3-|


  S S S S S S S S S S S S S S S S S S S S
------------------------------------------|
------------------------------------------|
----------5-4-----------------------------|
--------6-------------5-4-----------------|
--------------------6-------------4-3-----|
--0-0-0-------0-0-0-------0-0-0-5-----4-3-|


  S S S S S S S S S S S S S S S  S  S  S  S  S
-----------------------------------------------|
-----------------------------------------------|
----------5-4----------------------------------|
--------6-------------5-4----------------------|
--------------------6--------------12-11-------|
--0-0-0-------0-0-0-------0-0-0-13-------12-11-|

  S S S S S S S S S S S S S S S  S  S  S  S  S
-----------------------------------------------|
-----------------------------------------------|
----------5-4----------------------------------|
--------6-------------5-4----------------------|
--------------------6--------------12-11-------|
--0-0-0-------0-0-0-------0-0-0-13-------12-11-|


  S S S S S S S S S S S S S S S  S  S  S  S  S
-----------------------------------------------|
-----------------------------------------------|
----------5-4----------------------------------|
--------6-------------5-4----------------------|
--------------------6--------------12-11-------|
--0-0-0-------0-0-0-------0-0-0-13-------12-11-|


  S S S S S S S S S S S S S S S  S  S  S  S  S
-----------------------------------------------|
-----------------------------------------------|
----------5-4----------------------------------|
--------6-------------5-4----------------------|
--------------------6--------------12-11-------|
--0-0-0-------0-0-0-------0-0-0-13-------12-11-|


  A chord diagramE MajorE  Q       S S S S  S S S S S S S S  S  S S S
----------|-------------------------------------|
----------|-------------------------------------|
----------|-------------------------------------|
----------|----------10-9-8---------------------|
--2-------|-----------8-7-6-----------11-10-9---|
--0-------|--0-0-0-0--------0-0-0-0-0--9--8-7-0-|


  S S S S  S S S S  S  S  S S  S  S  S S
-----------------------------------------|
-----------------------------------------|
-----------------------------------------|
----------10-9-8---12-11-10--------------|
-----------8-7-6---10--9--8---12-11-10---|
--0-0-0-0--------0----------0-10--9--8-0-|


  S S S S  S S S S S S S S  S  S S S
-------------------------------------|
-------------------------------------|
-------------------------------------|
----------10-9-8---------------------|
-----------8-7-6-----------11-10-9---|
--0-0-0-0--------0-0-0-0-0--9--8-7-0-|


  S S S S  S S S S  S  S  S S  S  S  S S
-----------------------------------------|
-----------------------------------------|
-----------------------------------------|
----------10-9-8---12-11-10--------------|
-----------8-7-6---10--9--8---12-11-10---|
--0-0-0-0--------0----------0-10--9--8-0-|


  S S S S  S S S S S S S S  S  S S S
-------------------------------------|
-------------------------------------|
-------------------------------------|
----------10-9-8---------------------|
-----------8-7-6-----------11-10-9---|
--0-0-0-0--------0-0-0-0-0--9--8-7-0-|


  S S S S  S S S S  S  S  S S  S  S  S S
-----------------------------------------|
-----------------------------------------|
-----------------------------------------|
----------10-9-8---12-11-10--------------|
-----------8-7-6---10--9--8---12-11-10---|
--0-0-0-0--------0----------0-10--9--8-0-|


  S S S S  S S S S S S S S  S  S S S
-------------------------------------|
-------------------------------------|
-------------------------------------|
----------10-9-8---------------------|
-----------8-7-6-----------11-10-9---|
--0-0-0-0--------0-0-0-0-0--9--8-7-0-|


  S S S S  S S S S  S  S  S S  S  S  S S
-----------------------------------------|
-----------------------------------------|
-----------------------------------------|
----------10-9-8---12-11-10--------------|
-----------8-7-6---10--9--8---12-11-10---|
--0-0-0-0--------0----------0-10--9--8-0-|


  S S S S  S S S S S S S S  S  S S S
-------------------------------------|
-------------------------------------|
-------------------------------------|
----------10-9-8---------------------|
-----------8-7-6-----------11-10-9---|
--0-0-0-0--------0-0-0-0-0--9--8-7-0-|


  S S S S  S S S S  S  S  S S  S  S  S S
-----------------------------------------|
-----------------------------------------|
-----------------------------------------|
----------10-9-8---12-11-10--------------|
-----------8-7-6---10--9--8---12-11-10---|
--0-0-0-0--------0----------0-10--9--8-0-|


  S S S S  S S S S S S S S  S  S S S
-------------------------------------|
-------------------------------------|
-------------------------------------|
----------10-9-8---------------------|
-----------8-7-6-----------11-10-9---|
--0-0-0-0--------0-0-0-0-0--9--8-7-0-|


  S S S S  S S S S  S  S  S S  S  S  S S
-----------------------------------------|
-----------------------------------------|
-----------------------------------------|
----------10-9-8---12-11-10--------------|
-----------8-7-6---10--9--8---12-11-10---|
--0-0-0-0--------0----------0-10--9--8-0-|


  Rhy Fig 2
  S         S S S S S S S S S S S A chord diagramE MajorE  A chord diagramE MajorE
----------------------------------------|
----------------------------------------|
----------------------------------------|
----------------------------------------|
--4---------4-4-4---3-2---4-4-4-4-5--5--|
--2---------2-2-2-4-----3-2-2-2-2-3--3--|


  S S S S S S S S S S S S A chord diagramE MajorE  A chord diagramE MajorE
--------------------------------|
--------------------------------|
--------------------------------|
--------------------------------|
--4-4-4-4---3-2---4-4-4-4-5--7--|
--2-2-2-2-4-----3-2-2-2-2-3--5--|


  S S S S S S S S S S S S A chord diagramE MajorE  A chord diagramE MajorE
--------------------------------|
--------------------------------|
--------------------------------|
--------------------------------|
--4-4-4-4---3-2---4-4-4-4-5--5--|
--2-2-2-2-4-----3-2-2-2-2-3--3--|


                           End
  S S S S S S S S A chord diagramE MajorE  A chord diagramE MajorE  A chord diagramE MajorE  A chord diagramE MajorE
-------------------------------|
-------------------------------|
-------------------------------|
-------------------------------|
--4-4-4-4---3-2---7--7--5--5---|
--2-2-2-2-4-----3-5--5--3--3---|


  S S S S S S S S S S S S A chord diagramE MajorE  A chord diagramE MajorE
--------------------------------|
--------------------------------|
--------------------------------|
--------------------------------|
--4-4-4-4---3-2---4-4-4-4-5--5--|
--2-2-2-2-4-----3-2-2-2-2-3--3--|


  S S S S S S S S S S S S A chord diagramE MajorE  A chord diagramE MajorE
--------------------------------|
--------------------------------|
--------------------------------|
--------------------------------|
--4-4-4-4---3-2---4-4-4-4-5--7--|
--2-2-2-2-4-----3-2-2-2-2-3--5--|


  S S S S S S S S S S S S A chord diagramE MajorE  A chord diagramE MajorE
--------------------------------|
--------------------------------|
--------------------------------|
--------------------------------|
--4-4-4-4---3-2---4-4-4-4-5--5--|
--2-2-2-2-4-----3-2-2-2-2-3--3--|


  S S S S S S S S A chord diagramE MajorE  A chord diagramE MajorE  A chord diagramE MajorE  A chord diagramE MajorE
------------------------------|
------------------------------|
------------------------------|
------------------------------|
--4-4-4-4---3-2---7--7--5--5--|
--2-2-2-2-4-----3-5--5--3--3--|


  S S S S  S S S S S S S S  S  S S S
-------------------------------------|
-------------------------------------|
-------------------------------------|
----------10-9-8---------------------|
-----------8-7-6-----------11-10-9---|
--0-0-0-0--------0-0-0-0-0--9--8-7-0-|


  S S S S  S S S S  S  S  S S  S  S  S S
-----------------------------------------|
-----------------------------------------|
-----------------------------------------|
----------10-9-8---12-11-10--------------|
-----------8-7-6---10--9--8---12-11-10---|
--0-0-0-0--------0----------0-10--9--8-0-|


  S S S S  S S S S S S S S  S  S S S
-------------------------------------|
-------------------------------------|
-------------------------------------|
----------10-9-8---------------------|
-----------8-7-6-----------11-10-9---|
--0-0-0-0--------0-0-0-0-0--9--8-7-0-|


  S S S S  S S S S  S  S  S S  S  S  S S
-----------------------------------------|
-----------------------------------------|
-----------------------------------------|
----------10-9-8---12-11-10--------------|
-----------8-7-6---10--9--8---12-11-10---|
--0-0-0-0--------0----------0-10--9--8-0-|


  S S S S  S S S S S S S S  S  S S S
-------------------------------------|
-------------------------------------|
-------------------------------------|
----------10-9-8---------------------|
-----------8-7-6-----------11-10-9---|
--0-0-0-0--------0-0-0-0-0--9--8-7-0-|


  S S S S  S S S S  S  S  S S  S  S  S S
-----------------------------------------|
-----------------------------------------|
-----------------------------------------|
----------10-9-8---12-11-10--------------|
-----------8-7-6---10--9--8---12-11-10---|
--0-0-0-0--------0----------0-10--9--8-0-|


  S S S S  S S S S S S S S  S  S S S
-------------------------------------|
-------------------------------------|
-------------------------------------|
----------10-9-8---------------------|
-----------8-7-6-----------11-10-9---|
--0-0-0-0--------0-0-0-0-0--9--8-7-0-|


  S S S S  S S S S  S  S  S S  S  S  S S
-----------------------------------------|
-----------------------------------------|
-----------------------------------------|
----------10-9-8---12-11-10--------------|
-----------8-7-6---10--9--8---12-11-10---|
--0-0-0-0--------0----------0-10--9--8-0-|


  S S S S  S S S S S S S S  S  S S S
-------------------------------------|
-------------------------------------|
-------------------------------------|
----------10-9-8---------------------|
-----------8-7-6-----------11-10-9---|
--0-0-0-0--------0-0-0-0-0--9--8-7-0-|


  S S S S  S S S S  S  S  S S  S  S  S S
-----------------------------------------|
-----------------------------------------|
-----------------------------------------|
----------10-9-8---12-11-10--------------|
-----------8-7-6---10--9--8---12-11-10---|
--0-0-0-0--------0----------0-10--9--8-0-|


  S S S S  S S S S S S S S  S  S S S
-------------------------------------|
-------------------------------------|
-------------------------------------|
----------10-9-8---------------------|
-----------8-7-6-----------11-10-9---|
--0-0-0-0--------0-0-0-0-0--9--8-7-0-|


  S S S S  S S S S  S  S  S S  S  S  S S
-----------------------------------------|
-----------------------------------------|
-----------------------------------------|
----------10-9-8---12-11-10--------------|
-----------8-7-6---10--9--8---12-11-10---|
--0-0-0-0--------0----------0-10--9--8-0-|


  S S S S S S S S S S S S A chord diagramE MajorE  A chord diagramE MajorE
--------------------------------|
--------------------------------|
--------------------------------|
--------------------------------|
--4-4-4-4---3-2---4-4-4-4-5--5--|
--2-2-2-2-4-----3-2-2-2-2-3--3--|


  S S S S S S S S S S S S A chord diagramE MajorE  A chord diagramE MajorE
--------------------------------|
--------------------------------|
--------------------------------|
--------------------------------|
--4-4-4-4---3-2---4-4-4-4-5--7--|
--2-2-2-2-4-----3-2-2-2-2-3--5--|


  S S S S S S S S S S S S A chord diagramE MajorE  A chord diagramE MajorE
--------------------------------|
--------------------------------|
--------------------------------|
--------------------------------|
--4-4-4-4---3-2---4-4-4-4-5--5--|
--2-2-2-2-4-----3-2-2-2-2-3--3--|


  S S S S S S S S A chord diagramE MajorE  A chord diagramE MajorE  A chord diagramE MajorE  A chord diagramE MajorE
------------------------------|
------------------------------|
------------------------------|
------------------------------|
--4-4-4-4---3-2---7--7--5--5--|
--2-2-2-2-4-----3-5--5--3--3--|


  S S S S S S S S S S S S A chord diagramE MajorE  A chord diagramE MajorE
--------------------------------|
--------------------------------|
--------------------------------|
--------------------------------|
--4-4-4-4---3-2---4-4-4-4-5--5--|
--2-2-2-2-4-----3-2-2-2-2-3--3--|


  S S S S S S S S S S S S A chord diagramE MajorE  A chord diagramE MajorE
--------------------------------|
--------------------------------|
--------------------------------|
--------------------------------|
--4-4-4-4---3-2---4-4-4-4-5--7--|
--2-2-2-2-4-----3-2-2-2-2-3--5--|


  S S S S S S S S S S S S A chord diagramE MajorE  A chord diagramE MajorE     Q    H        Q
--------------------------------|---------------------|
--------------------------------|----------------0----|
--------------------------------|----------------0----|
--------------------------------|----------------0----|
--4-4-4-4---3-2---4-4-4-4-5--5--|---------------------|
--2-2-2-2-4-----3-2-2-2-2-3--3--|---------------------|


                                   |--3-|  |--6-|  |--6-
    E.    T  T   Q       A chord diagramE MajorE    A chord diagramE MajorE    S  S S  T  T T  T  T
--------------------------------------------------------|
--------------------------------------------------------|
--5br---5p-3-5brb----L~--(5)S--9-12-9-14-12-9-14-12-|
--------------------------------------------------------|
--------------------------------------------------------|
--------------------------------------------------------|


   T         T         T         T
   |---6--|  |---6--|  |------5------|               |--
   T   T  T  T   T  T  T   T  T  T   T  T S. A chord diagramE MajorE  T  T T
--------------------------------------------------------|
--------------------------------------------------------|
--14p-12p-9-14p-12p-9-14p-12p-9-14h-15p-9-7b-7--4p-0-6p-|
--------------------------------------------------------|
--------------------------------------------------------|
--------------------------------------------------------|


      |-3-| |-3-|      |--6-| |--6-|  |---3--|
  A chord diagramE MajorE   S S S S S S A chord diagramE MajorE    S S  S S  S S  S   S  S  T  T  T
-----------------------------------------------12-12-15--|p
----------------------12-9-12-9-12-9-12S-15-15-----------|
--------------9-7-9S-------------------------------------|
--0S--9-7-9-7--------------------------------------------|
---------------------------------------------------------|
---------------------------------------------------------|


                                                   T
   T  T  T  T T  T  T  X  X  Q       Q        A chord diagramE MajorE    T   T
--12-13-14-17-L-15-18-18-18-18b~----18pb~----18S---------|
---------------------------------------------18S--18p-13-|
---------------------------------------------------------|
---------------------------------------------------------|
---------------------------------------------------------|
---------------------------------------------------------|


   T      T      T      T      T      T      T      T
   9   9  9   9  9   9  9   9  9   9  9   9  9   9  9
   T   T  T   T  T   T  T   T  T   T  T   T  T   T  T
---------------------------------------------------------|
--18p-11-18p-13-19p-15-19p-13-19p-16-20p-17-20p-15-20p-1-|
---------------------------------------------------------|
---------------------------------------------------------|
---------------------------------------------------------|
---------------------------------------------------------|


            NHW    W    W W
    E.      S Q    E.   S Q
--(20)-------------------------|
-------------------------------|
---------16-L----L---16-L----|
-------------------------------|
-------------------------------|
-------------------------------|


   S  T  T  S S   S  T  T  S S   S  T  T  S S   S  T  T
--------------------------------------------------------|
-----17-17-17-------17-17-17-------17-17-17-------17-17-|
--17-17-17-17-9S-17-17-17-17-9S-17-17-17-17-9S-17-17-17-|
--------------------------------------------------------|
--------------------------------------------------------|
--------------------------------------------------------|


    hold bend-----------------------------------------
                                                      T
                                                      |-
    A chord diagramE MajorE                                                 T
--(18)pb---------------------------------------------22-|
--------------------------------------------------------|
--------------------------------------------------------|
--------------------------------------------------------|
--------------------------------------------------------|
--------------------------------------------------------|


  Rhy Fig 3
  S         S S S S S S S S S S S S S S S
------------------------------------------|
------------------------------------------|
------------------------------------------|
------------------------------------------|
--4---------4-4-4---3-2---4-4-4-4-4-4-4-4-|
--2---------2-2-2-4-----3-2-2-2-2-2-2-2-2-|


  S S S S S S S S A chord diagramE MajorE  A chord diagramE MajorE  A chord diagramE MajorE  A chord diagramE MajorE
------------------------------|
------------------------------|
------------------------------|
------------------------------|
--4-4-4-4---3-2---7--7--5--5--|
--2-2-2-2-4-----3-5--5--3--3--|


  S S S S S S S S S S S S S S S S
----------------------------------|
----------------------------------|
----------------------------------|
----------------------------------|
--4-4-4-4---3-2---4-4-4-4-4-4-4-4-|
--2-2-2-2-4-----3-2-2-2-2-2-2-2-2-|


  S S S S S S S S A chord diagramE MajorE  A chord diagramE MajorE  A chord diagramE MajorE  A chord diagramE MajorE
------------------------------|
------------------------------|
------------------------------|
------------------------------|
--4-4-4-4---3-2---7--7--5--5--|
--2-2-2-2-4-----3-5--5--3--3--|


  S S S S S S S S S S S S S S S S
----------------------------------|
----------------------------------|
----------------------------------|
----------------------------------|
--4-4-4-4---3-2---4-4-4-4-4-4-4-4-|
--2-2-2-2-4-----3-2-2-2-2-2-2-2-2-|


  S S S S S S S S A chord diagramE MajorE  A chord diagramE MajorE  A chord diagramE MajorE  A chord diagramE MajorE
------------------------------|
------------------------------|
------------------------------|
------------------------------|
--4-4-4-4---3-2---7--7--5--5--|
--2-2-2-2-4-----3-5--5--3--3--|


  S S S S S S S S S S S S S S S S
----------------------------------|
----------------------------------|
----------------------------------|
----------------------------------|
--4-4-4-4---3-2---4-4-4-4-4-4-4-4-|
--2-2-2-2-4-----3-2-2-2-2-2-2-2-2-|


  S S S S S S S S A chord diagramE MajorE  A chord diagramE MajorE  A chord diagramE MajorE  A chord diagramE MajorE
------------------------------|
------------------------------|
------------------------------|
------------------------------|
--4-4-4-4---3-2---7--7--5--5--|
--2-2-2-2-4-----3-5--5--3--3--|


  S S S S S S S S S S S S S S S S S S S S
------------------------------------------|
------------------------------------------|
----------5-4-----------------------------|
--------6-------------5-4-----------------|
--------------------6-------------4-3-----|
--0-0-0-------0-0-0-------0-0-0-5-----4-3-|


  S S S S S S S S S S S S S S S  S  S  S  S  S
-----------------------------------------------|
-----------------------------------------------|
----------5-4----------------------------------|
--------6-------------5-4----------------------|
--------------------6--------------12-11-------|
--0-0-0-------0-0-0-------0-0-0-13-------12-11-|


  S S S S S S S S S S S S S S S S S S S S
------------------------------------------|
------------------------------------------|
----------5-4-----------------------------|
--------6-------------5-4-----------------|
--------------------6-------------4-3-----|
--0-0-0-------0-0-0-------0-0-0-5-----4-3-|


  S S S S S S S S S S S S S S S  S
-----------------------------------|
-----------------------------------|
-----------------------------------|
----------5-4---------5-4----------|
--------6-----------6--------------|
--0-0-0-------0-0-0-------0-0-0-13-|


   S  S  S  S  S  S  S  S  S  S  S  S  S  S  S  S
---------------------------------------------------|
-----------------------------------------11--------|
-----------------------------------11-12----12-11~-|
--------------------12-11----11-12-----------------|
--12-11----11-12-13-------12-----------------------|
--------12-----------------------------------------|


   H.             A chord diagramE MajorE  S S
-------------------------|
-------------------------|
--11~------------11------|
-------------------------|
-------------------------|
---------------------3-1-|


  Rhy Fig 4
  A chord diagramE MajorE         A chord diagramE MajorE  A chord diagramE MajorE  A chord diagramE MajorE  A chord diagramE MajorE  A chord diagramE MajorE  A chord diagramE MajorE  S S
----------------------------------|
----------------------------------|
----------------------------------|
----------------------------------|
---------------------3------------|
--0---------0--0--0--1--0--0--3-1-|


  A chord diagramE MajorE  A chord diagramE MajorE  A chord diagramE MajorE  A chord diagramE MajorE  A chord diagramE MajorE  A chord diagramE MajorE  A chord diagramE MajorE  S S    A chord diagramE MajorE  A chord diagramE MajorE  A chord diagramE MajorE  A chord diagramE MajorE  A chord diagramE MajorE  A chord diagramE MajorE  A chord diagramE MajorE  A chord diagramE MajorE
---------------------------|--------------------------|
---------------------------|--------------------------|
---------------------------|--------------------------|
---------------------------|--------------------------|
--------------3------------|--------------3-----------|
--0--0--0--0--1--0--0--3-1-|--0--0--0--0--1--0--0--0--|


  A chord diagramE MajorE  A chord diagramE MajorE  A chord diagramE MajorE  A chord diagramE MajorE  A chord diagramE MajorE  A chord diagramE MajorE  A chord diagramE MajorE  A chord diagramE MajorE     A chord diagramE MajorE  A chord diagramE MajorE  A chord diagramE MajorE  A chord diagramE MajorE  A chord diagramE MajorE  A chord diagramE MajorE  A chord diagramE MajorE  S S
--------------------------|---------------------------|
--------------------------|---------------------------|
--------------------------|---------------------------|
-----------1-----------4--|---------------------------|
-----3--2--------6--5-----|--------------3------------|
--1-----------4-----------|--0--0--0--0--1--0--0--3-1-|


  A chord diagramE MajorE  A chord diagramE MajorE  A chord diagramE MajorE  A chord diagramE MajorE  A chord diagramE MajorE  A chord diagramE MajorE  A chord diagramE MajorE  S S    A chord diagramE MajorE  A chord diagramE MajorE  A chord diagramE MajorE  A chord diagramE MajorE  A chord diagramE MajorE  A chord diagramE MajorE  A chord diagramE MajorE  A chord diagramE MajorE
---------------------------|--------------------------|
---------------------------|--------------------------|
---------------------------|--------------------------|
---------------------------|--------------------------|
--------------3------------|--------------3-----------|
--0--0--0--0--1--0--0--3-1-|--0--0--0--0--1--0--0--0--|


  A chord diagramE MajorE  A chord diagramE MajorE  A chord diagramE MajorE  A chord diagramE MajorE  A chord diagramE MajorE  A chord diagramE MajorE  A chord diagramE MajorE  A chord diagramE MajorE
--------------------------|
--------------------------|
--------------------------|
-----------1--------------|
-----3--2--------6--5-----|
--1-----------4--------5--|


  Rhy Fig 4
  A chord diagramE MajorE         A chord diagramE MajorE  A chord diagramE MajorE  A chord diagramE MajorE  A chord diagramE MajorE  A chord diagramE MajorE  A chord diagramE MajorE  S S
----------------------------------|
----------------------------------|
----------------------------------|
----------------------------------|
---------------------3------------|
--0---------0--0--0--1--0--0--3-1-|


  A chord diagramE MajorE  A chord diagramE MajorE  A chord diagramE MajorE  A chord diagramE MajorE  A chord diagramE MajorE  A chord diagramE MajorE  A chord diagramE MajorE  S S    A chord diagramE MajorE  A chord diagramE MajorE  A chord diagramE MajorE  A chord diagramE MajorE  A chord diagramE MajorE  A chord diagramE MajorE  A chord diagramE MajorE  A chord diagramE MajorE
---------------------------|--------------------------|
---------------------------|--------------------------|
---------------------------|--------------------------|
---------------------------|--------------------------|
--------------3------------|--------------3-----------|
--0--0--0--0--1--0--0--3-1-|--0--0--0--0--1--0--0--0--|


  A chord diagramE MajorE  A chord diagramE MajorE  A chord diagramE MajorE  A chord diagramE MajorE  A chord diagramE MajorE  A chord diagramE MajorE  A chord diagramE MajorE  A chord diagramE MajorE     A chord diagramE MajorE  A chord diagramE MajorE  A chord diagramE MajorE  A chord diagramE MajorE  A chord diagramE MajorE  A chord diagramE MajorE  A chord diagramE MajorE  S S
--------------------------|---------------------------|
--------------------------|---------------------------|
--------------------------|---------------------------|
-----------1-----------4--|---------------------------|
-----3--2--------6--5-----|--------------3------------|
--1-----------4-----------|--0--0--0--0--1--0--0--3-1-|


  A chord diagramE MajorE  A chord diagramE MajorE  A chord diagramE MajorE  A chord diagramE MajorE  A chord diagramE MajorE  A chord diagramE MajorE  A chord diagramE MajorE  S S    A chord diagramE MajorE  A chord diagramE MajorE  A chord diagramE MajorE  A chord diagramE MajorE  A chord diagramE MajorE  A chord diagramE MajorE  A chord diagramE MajorE  A chord diagramE MajorE
---------------------------|--------------------------|
---------------------------|--------------------------|
---------------------------|--------------------------|
---------------------------|--------------------------|
--------------3------------|--------------3-----------|
--0--0--0--0--1--0--0--3-1-|--0--0--0--0--1--0--0--0--|


  A chord diagramE MajorE  A chord diagramE MajorE  A chord diagramE MajorE  A chord diagramE MajorE  A chord diagramE MajorE  A chord diagramE MajorE  A chord diagramE MajorE  A chord diagramE MajorE
--------------------------|
--------------------------|
--------------------------|
-----------1--------------|
-----3--2--------6--5-----|
--1-----------4--------5--|


  Rhy Fig 4
  A chord diagramE MajorE         A chord diagramE MajorE  A chord diagramE MajorE  A chord diagramE MajorE  A chord diagramE MajorE  A chord diagramE MajorE  A chord diagramE MajorE  S S
----------------------------------|
----------------------------------|
----------------------------------|
----------------------------------|
---------------------3------------|
--0---------0--0--0--1--0--0--3-1-|


  A chord diagramE MajorE  A chord diagramE MajorE  A chord diagramE MajorE  A chord diagramE MajorE  A chord diagramE MajorE  A chord diagramE MajorE  A chord diagramE MajorE  S S    A chord diagramE MajorE  A chord diagramE MajorE  A chord diagramE MajorE  A chord diagramE MajorE  A chord diagramE MajorE  A chord diagramE MajorE  A chord diagramE MajorE  A chord diagramE MajorE
---------------------------|--------------------------|
---------------------------|--------------------------|
---------------------------|--------------------------|
---------------------------|--------------------------|
--------------3------------|--------------3-----------|
--0--0--0--0--1--0--0--3-1-|--0--0--0--0--1--0--0--0--|


  A chord diagramE MajorE  A chord diagramE MajorE  A chord diagramE MajorE  A chord diagramE MajorE  A chord diagramE MajorE  A chord diagramE MajorE  A chord diagramE MajorE  A chord diagramE MajorE     A chord diagramE MajorE  A chord diagramE MajorE  A chord diagramE MajorE  A chord diagramE MajorE  A chord diagramE MajorE  A chord diagramE MajorE  A chord diagramE MajorE  S S
--------------------------|---------------------------|
--------------------------|---------------------------|
--------------------------|---------------------------|
-----------1-----------4--|---------------------------|
-----3--2--------6--5-----|--------------3------------|
--1-----------4-----------|--0--0--0--0--1--0--0--3-1-|


  A chord diagramE MajorE  A chord diagramE MajorE  A chord diagramE MajorE  A chord diagramE MajorE  A chord diagramE MajorE  A chord diagramE MajorE  A chord diagramE MajorE  S S    A chord diagramE MajorE  A chord diagramE MajorE  A chord diagramE MajorE  A chord diagramE MajorE  A chord diagramE MajorE  A chord diagramE MajorE  A chord diagramE MajorE  A chord diagramE MajorE
---------------------------|--------------------------|
---------------------------|--------------------------|
---------------------------|--------------------------|
---------------------------|--------------------------|
--------------3------------|--------------3-----------|
--0--0--0--0--1--0--0--3-1-|--0--0--0--0--1--0--0--0--|


  A chord diagramE MajorE  A chord diagramE MajorE  A chord diagramE MajorE  A chord diagramE MajorE  A chord diagramE MajorE  A chord diagramE MajorE  A chord diagramE MajorE  A chord diagramE MajorE
--------------------------|
--------------------------|
--------------------------|
-----------1--------------|
-----3--2--------6--5-----|
--1-----------4--------5--|


  Rhy Fig 4
  A chord diagramE MajorE         A chord diagramE MajorE  A chord diagramE MajorE  A chord diagramE MajorE  A chord diagramE MajorE  A chord diagramE MajorE  A chord diagramE MajorE  S S
----------------------------------|
----------------------------------|
----------------------------------|
----------------------------------|
---------------------3------------|
--0---------0--0--0--1--0--0--3-1-|


  A chord diagramE MajorE  A chord diagramE MajorE  A chord diagramE MajorE  A chord diagramE MajorE  A chord diagramE MajorE  A chord diagramE MajorE  A chord diagramE MajorE  S S    A chord diagramE MajorE  A chord diagramE MajorE  A chord diagramE MajorE  A chord diagramE MajorE  A chord diagramE MajorE  A chord diagramE MajorE  A chord diagramE MajorE  A chord diagramE MajorE
---------------------------|--------------------------|
---------------------------|--------------------------|
---------------------------|--------------------------|
---------------------------|--------------------------|
--------------3------------|--------------3-----------|
--0--0--0--0--1--0--0--3-1-|--0--0--0--0--1--0--0--0--|


  A chord diagramE MajorE  A chord diagramE MajorE  A chord diagramE MajorE  A chord diagramE MajorE  A chord diagramE MajorE  A chord diagramE MajorE  A chord diagramE MajorE  A chord diagramE MajorE     A chord diagramE MajorE  A chord diagramE MajorE  A chord diagramE MajorE  A chord diagramE MajorE  A chord diagramE MajorE  A chord diagramE MajorE  A chord diagramE MajorE  S S
--------------------------|---------------------------|
--------------------------|---------------------------|
--------------------------|---------------------------|
-----------1-----------4--|---------------------------|
-----3--2--------6--5-----|--------------3------------|
--1-----------4-----------|--0--0--0--0--1--0--0--3-1-|


  A chord diagramE MajorE  A chord diagramE MajorE  A chord diagramE MajorE  A chord diagramE MajorE  A chord diagramE MajorE  A chord diagramE MajorE  A chord diagramE MajorE  S S    A chord diagramE MajorE  A chord diagramE MajorE  A chord diagramE MajorE  A chord diagramE MajorE  A chord diagramE MajorE  A chord diagramE MajorE  A chord diagramE MajorE  A chord diagramE MajorE
---------------------------|--------------------------|
---------------------------|--------------------------|
---------------------------|--------------------------|
---------------------------|--------------------------|
--------------3------------|--------------3-----------|
--0--0--0--0--1--0--0--3-1-|--0--0--0--0--1--0--0--0--|


  H        H           A chord diagramE MajorE  A chord diagramE MajorE  A chord diagramE MajorE  A chord diagramE MajorE  A chord diagramE MajorE  A chord diagramE MajorE  A chord diagramE MajorE  S   S
--------------------|-----------------------------|
--------------------|-----------------------------|
--------------------|-----------------------------|
--------------------|--9--------------------9S-10-|
--3--------6--------|--7-----------7--------7S--8-|
--1--------4--------|-----0--0--0--0--0--0--------|


  A chord diagramE MajorE  A chord diagramE MajorE  A chord diagramE MajorE  A chord diagramE MajorE  A chord diagramE MajorE  A chord diagramE MajorE  A chord diagramE MajorE  S   S
-----------------------------|
-----------------------------|
-----------------------------|
--9--------------------9S-10-|
--7-----------7--------7S--8-|
-----0--0--0--0--0--0--------|


  A chord diagramE MajorE  A chord diagramE MajorE  A chord diagramE MajorE  A chord diagramE MajorE  A chord diagramE MajorE  A chord diagramE MajorE  A chord diagramE MajorE  S   S
-----------------------------|
-----------------------------|
-----------------------------|
--9--------------------9S-10-|
--7-----------7--------7S--8-|
-----0--0--0--0--0--0--------|


  A chord diagramE MajorE  A chord diagramE MajorE  A chord diagramE MajorE  A chord diagramE MajorE  A chord diagramE MajorE  A chord diagramE MajorE   Q
--------------------------|
--------------------------|
--------------------------|
--9-----------------10----|
--7-----------7------8----|
-----0--0--0--0--0--------|


  A chord diagramE MajorE  A chord diagramE MajorE  A chord diagramE MajorE  A chord diagramE MajorE  A chord diagramE MajorE  A chord diagramE MajorE  A chord diagramE MajorE  S   S
-----------------------------|
-----------------------------|
-----------------------------|
--9--------------------9S-10-|
--7-----------7--------7S--8-|
-----0--0--0--0--0--0--------|


  A chord diagramE MajorE  A chord diagramE MajorE  A chord diagramE MajorE  A chord diagramE MajorE  A chord diagramE MajorE  A chord diagramE MajorE  A chord diagramE MajorE  S   S
-----------------------------|
-----------------------------|
-----------------------------|
--9--------------------9S-10-|
--7-----------7--------7S--8-|
-----0--0--0--0--0--0--------|


  A chord diagramE MajorE  A chord diagramE MajorE  A chord diagramE MajorE  A chord diagramE MajorE  A chord diagramE MajorE  A chord diagramE MajorE  A chord diagramE MajorE  S   S
-----------------------------|
-----------------------------|
-----------------------------|
--9--------------------9S-10-|
--7-----------7--------7S--8-|
-----0--0--0--0--0--0--------|


  A chord diagramE MajorE  A chord diagramE MajorE  A chord diagramE MajorE  A chord diagramE MajorE  A chord diagramE MajorE  A chord diagramE MajorE   Q       A chord diagramE MajorE  A chord diagramE MajorE  A chord diagramE MajorE  A chord diagramE MajorE  A chord diagramE MajorE  A chord diagramE MajorE   A chord diagramE MajorE  A chord diagramE MajorE
--------------------------|---------------------------|
--------------------------|---------------------------|
--------------------------|---------------------------|
--9-----------------10----|------------------------7--|
--7-----------7------8----|-----7--8-----7--8--10-----|
-----0--0--0--0--0--------|--0--------0---------------|


  A chord diagramE MajorE  A chord diagramE MajorE  A chord diagramE MajorE  A chord diagramE MajorE  A chord diagramE MajorE  A chord diagramE MajorE  A chord diagramE MajorE  A chord diagramE MajorE      A chord diagramE MajorE  A chord diagramE MajorE  A chord diagramE MajorE  A chord diagramE MajorE  A chord diagramE MajorE  A chord diagramE MajorE   A chord diagramE MajorE  A chord diagramE MajorE
---------------------------|---------------------------|
---------------------------|---------------------------|
---------------------------|---------------------------|
--------------------7--8~--|------------------------7--|
-----7--8-----7--8---------|-----7--8-----7--8--10-----|
--0--------0---------------|--0--------0---------------|


  A chord diagramE MajorE  A chord diagramE MajorE  A chord diagramE MajorE  A chord diagramE MajorE  A chord diagramE MajorE  A chord diagramE MajorE  A chord diagramE MajorE   A chord diagramE MajorE     A chord diagramE MajorE  A chord diagramE MajorE  A chord diagramE MajorE  A chord diagramE MajorE  A chord diagramE MajorE  A chord diagramE MajorE   A chord diagramE MajorE  A chord diagramE MajorE
---------------------------|---------------------------|
---------------------------|---------------------------|
---------------------------|---------------------------|
---------------------------|------------------------7--|
-----7--8-----7--8---------|-----7--8-----7--8--10-----|
--0--------0--------8--10--|--0--------0---------------|


  A chord diagramE MajorE  A chord diagramE MajorE  A chord diagramE MajorE  A chord diagramE MajorE  A chord diagramE MajorE  A chord diagramE MajorE  A chord diagramE MajorE  A chord diagramE MajorE      A chord diagramE MajorE  A chord diagramE MajorE  A chord diagramE MajorE  A chord diagramE MajorE  A chord diagramE MajorE  A chord diagramE MajorE   A chord diagramE MajorE  A chord diagramE MajorE
---------------------------|---------------------------|
---------------------------|---------------------------|
---------------------------|---------------------------|
--------------------7--8~--|------------------------7--|
-----7--8-----7--8---------|-----7--8-----7--8--10-----|
--0--------0---------------|--0--------0---------------|


  A chord diagramE MajorE  A chord diagramE MajorE  A chord diagramE MajorE  A chord diagramE MajorE  A chord diagramE MajorE  A chord diagramE MajorE  A chord diagramE MajorE   A chord diagramE MajorE     A chord diagramE MajorE  A chord diagramE MajorE  A chord diagramE MajorE  A chord diagramE MajorE  A chord diagramE MajorE  A chord diagramE MajorE   A chord diagramE MajorE  A chord diagramE MajorE
---------------------------|---------------------------|
---------------------------|---------------------------|
---------------------------|---------------------------|
---------------------------|------------------------7--|
-----7--8-----7--8---------|-----7--8-----7--8--10-----|
--0--------0--------8--10--|--0--------0---------------|


  A chord diagramE MajorE  A chord diagramE MajorE  A chord diagramE MajorE  A chord diagramE MajorE  A chord diagramE MajorE  A chord diagramE MajorE  A chord diagramE MajorE  A chord diagramE MajorE      A chord diagramE MajorE  A chord diagramE MajorE  A chord diagramE MajorE  A chord diagramE MajorE  A chord diagramE MajorE  A chord diagramE MajorE   A chord diagramE MajorE  A chord diagramE MajorE
---------------------------|---------------------------|
---------------------------|---------------------------|
---------------------------|---------------------------|
--------------------7--8~--|------------------------7--|
-----7--8-----7--8---------|-----7--8-----7--8--10-----|
--0--------0---------------|--0--------0---------------|


  A chord diagramE MajorE  A chord diagramE MajorE  A chord diagramE MajorE  A chord diagramE MajorE  A chord diagramE MajorE  A chord diagramE MajorE  A chord diagramE MajorE   A chord diagramE MajorE     A chord diagramE MajorE  A chord diagramE MajorE  A chord diagramE MajorE  A chord diagramE MajorE  A chord diagramE MajorE  A chord diagramE MajorE  A chord diagramE MajorE  A chord diagramE MajorE
---------------------------|--------------------------|
---------------------------|--------------------------|
---------------------------|--------------------------|
---------------------------|--------2-----------3-----|
-----7--8-----7--8---------|-----2-----2-----3-----3--|
--0--------0--------8--10--|--0-----------0-----------|


  A chord diagramE MajorE  A chord diagramE MajorE  A chord diagramE MajorE  A chord diagramE MajorE  A chord diagramE MajorE  A chord diagramE MajorE  A chord diagramE MajorE  A chord diagramE MajorE     A chord diagramE MajorE  A chord diagramE MajorE  A chord diagramE MajorE  A chord diagramE MajorE  A chord diagramE MajorE  A chord diagramE MajorE  A chord diagramE MajorE  A chord diagramE MajorE
--------------------------|--------------------------|
--------------------------|--------------------------|
--------------------------|--------------------------|
--------2-----------3-----|--------2-----------3-----|
-----2-----2-----3-----3--|-----2-----2-----3-----3--|
--0-----------0-----------|--0-----------0-----------|


  A chord diagramE MajorE  A chord diagramE MajorE  A chord diagramE MajorE  A chord diagramE MajorE  A chord diagramE MajorE  A chord diagramE MajorE  A chord diagramE MajorE  A chord diagramE MajorE     A chord diagramE MajorE  A chord diagramE MajorE  A chord diagramE MajorE  A chord diagramE MajorE  A chord diagramE MajorE  A chord diagramE MajorE  A chord diagramE MajorE  A chord diagramE MajorE
--------------------------|--------------------------|
--------------------------|--------------------------|
--------------------------|--------------------------|
--------2-----------3-----|--------2-----------3-----|
-----2-----2-----3-----3--|-----2-----2-----3-----3--|
--0-----------0-----------|--0-----------0-----------|


  A chord diagramE MajorE  A chord diagramE MajorE  A chord diagramE MajorE  A chord diagramE MajorE  A chord diagramE MajorE  A chord diagramE MajorE  A chord diagramE MajorE  A chord diagramE MajorE     A chord diagramE MajorE  A chord diagramE MajorE  A chord diagramE MajorE  A chord diagramE MajorE  A chord diagramE MajorE  A chord diagramE MajorE  A chord diagramE MajorE  A chord diagramE MajorE
--------------------------|--------------------------|
--------------------------|--------------------------|
--------------------------|--------------------------|
--------2-----------3-----|--------2-----------3-----|
-----2-----2-----3-----3--|-----2-----2-----3-----3--|
--0-----------0-----------|--0-----------0-----------|


  A chord diagramE MajorE  A chord diagramE MajorE  A chord diagramE MajorE  A chord diagramE MajorE  A chord diagramE MajorE  A chord diagramE MajorE  A chord diagramE MajorE  A chord diagramE MajorE     Q    Q    Q    Q
--------------------------|----------------------|
--------------------------|----------------------|
--------------------------|----------------------|
--------2-----------3-----|----------------------|
-----2-----2-----3-----3--|--2----2----3----3----|
--0-----------0-----------|--0----0----1----1----|


  Q    Q    Q    Q       Q    Q    Q    Q
----------------------|----------------------|
----------------------|----------------------|
----------------------|----------------------|
----------------------|----------------------|
--2----2----3----3----|--2----2----3----3----|
--0----0----1----1----|--0----0----1----1----|


  Q    Q    Q    Q
----------------------|
----------------------|
----------------------|
----------------------|
--2----2----3----3----|
--0----0----1----1----|


  S S S S S S S S S S S S S S S S
----------------------------------|
----------------------------------|
----------------------------------|
----------------------------------|
----------------------------------|
--0-0-0-0-0-0-0-0-1-1-1-1-1-1-1-1-|


  S S S S S S S S S S S S S S S S
----------------------------------|
----------------------------------|
----------------------------------|
----------------------------------|
----------------------------------|
--0-0-0-0-0-0-0-0-1-1-1-1-1-1-1-1-|


  S S S S S S S S S S S S S S S S
----------------------------------|
----------------------------------|
----------------------------------|
----------------------------------|
----------------------------------|
--0-0-0-0-0-0-0-0-1-1-1-1-1-1-1-1-|


  S S S S S S S S S S S S S S S S    W
----------------------------------|-------------------|
----------------------------------|-------------------|
----------------------------------|-------------------|
----------------------------------|-------------------|
----------------------------------|-------------------|
--0-0-0-0-0-0-0-0-1-1-1-1-1-1-1-1-|-------------------|


  W                   W
-------------------|-------------------|
-------------------|-------------------|
-------------------|-------------------|
-------------------|-------------------|
-------------------|-------------------|
-------------------|-------------------|


  W                   A chord diagramE MajorE  S S A chord diagramE MajorE  S S A chord diagramE MajorE  A chord diagramE MajorE  A chord diagramE MajorE  A chord diagramE MajorE
-------------------|----------------------------|
-------------------|----------------------------|
-------------------|----------------------------|
-------------------|----------------------------|
-------------------|--4------4------4--5--4-----|
-------------------|--2--0-0-2--0-0-2--3--2--0--|


  A chord diagramE MajorE  S S A chord diagramE MajorE  S S A chord diagramE MajorE  A chord diagramE MajorE  A chord diagramE MajorE  A chord diagramE MajorE
----------------------------|
----------------------------|
----------------------------|
----------------------------|
--4------4------4--5--4-----|
--2--0-0-2--0-0-2--3--2--0--|


  A chord diagramE MajorE  S S A chord diagramE MajorE  S S A chord diagramE MajorE  A chord diagramE MajorE  A chord diagramE MajorE  A chord diagramE MajorE
----------------------------|
----------------------------|
----------------------------|
----------------------------|
--4------4------4--5--4-----|
--2--0-0-2--0-0-2--3--2--0--|


  A chord diagramE MajorE  S S A chord diagramE MajorE  S S A chord diagramE MajorE  S S Q
----------------------------|
----------------------------|
----------------------------|
----------------------------|
--4------4------4------3----|
--2--0-0-2--0-0-2--0-0-1----|


  A chord diagramE MajorE  S S A chord diagramE MajorE  S S A chord diagramE MajorE  A chord diagramE MajorE  A chord diagramE MajorE  A chord diagramE MajorE
----------------------------|
----------------------------|
----------------------------|
----------------------------|
--4------4------4--5--4-----|
--2--0-0-2--0-0-2--3--2--0--|


  A chord diagramE MajorE  S S A chord diagramE MajorE  S S A chord diagramE MajorE  A chord diagramE MajorE  A chord diagramE MajorE  A chord diagramE MajorE
----------------------------|
----------------------------|
----------------------------|
----------------------------|
--4------4------4--5--4-----|
--2--0-0-2--0-0-2--3--2--0--|


  A chord diagramE MajorE  S S A chord diagramE MajorE  S S A chord diagramE MajorE  A chord diagramE MajorE  A chord diagramE MajorE  A chord diagramE MajorE
----------------------------|
----------------------------|
----------------------------|
----------------------------|
--4------4------4--5--4-----|
--2--0-0-2--0-0-2--3--2--0--|


  A chord diagramE MajorE  S S A chord diagramE MajorE  S S A chord diagramE MajorE  S S Q
----------------------------|
----------------------------|
----------------------------|
----------------------------|
--4------4------4------3----|
--2--0-0-2--0-0-2--0-0-1----|


  A chord diagramE MajorE  S S A chord diagramE MajorE  S S A chord diagramE MajorE  A chord diagramE MajorE  A chord diagramE MajorE  A chord diagramE MajorE
----------------------------|
----------------------------|
----------------------------|
----------------------------|
--4------4------4--5--4-----|
--2--0-0-2--0-0-2--3--2--0--|


  A chord diagramE MajorE  S S A chord diagramE MajorE  S S A chord diagramE MajorE  A chord diagramE MajorE  A chord diagramE MajorE  A chord diagramE MajorE
----------------------------|
----------------------------|
----------------------------|
----------------------------|
--4------4------4--5--4-----|
--2--0-0-2--0-0-2--3--2--0--|


  A chord diagramE MajorE  S S A chord diagramE MajorE  S S A chord diagramE MajorE  A chord diagramE MajorE  A chord diagramE MajorE  A chord diagramE MajorE
----------------------------|
----------------------------|
----------------------------|
----------------------------|
--4------4------4--5--4-----|
--2--0-0-2--0-0-2--3--2--0--|


  A chord diagramE MajorE  S S A chord diagramE MajorE  S S A chord diagramE MajorE  S S Q
----------------------------|
----------------------------|
----------------------------|
-----------------------7----|
--4------4------4------5----|
--2--0-0-2--0-0-2--0-0------|


  A chord diagramE MajorE  S S A chord diagramE MajorE  S S A chord diagramE MajorE  S S A chord diagramE MajorE   A chord diagramE MajorE
------------------------------|
------------------------------|
------------------------------|
--9------9------9------9--12--|
--7------7------7------7--10--|
-----0-0----0-0----0-0--------|


  A chord diagramE MajorE  S S A chord diagramE MajorE  S S A chord diagramE MajorE  S S A chord diagramE MajorE   A chord diagramE MajorE
------------------------------|
------------------------------|
------------------------------|
--9------9------9------9--11--|
--7------7------7------7---9--|
-----0-0----0-0----0-0--------|


  A chord diagramE MajorE  S S A chord diagramE MajorE  S S A chord diagramE MajorE  S S A chord diagramE MajorE   A chord diagramE MajorE
------------------------------|
------------------------------|
------------------------------|
--9------9------9------9--10--|
--7------7------7------7---8--|
-----0-0----0-0----0-0--------|


  A chord diagramE MajorE  A chord diagramE MajorE  A chord diagramE MajorE  A chord diagramE MajorE  A chord diagramE MajorE  A chord diagramE MajorE  A chord diagramE MajorE  A chord diagramE MajorE
--------------------------|
--------------------------|
--------------------------|
--9--8-----8--7-----7--6--|
--7--6--8--6--5--7--5--4--|
--------6--------5--------|


  A chord diagramE MajorE  S S A chord diagramE MajorE  S S A chord diagramE MajorE  S S A chord diagramE MajorE   A chord diagramE MajorE
------------------------------|
------------------------------|
------------------------------|
--9------9------9------9--12--|
--7------7------7------7--10--|
-----0-0----0-0----0-0--------|


  A chord diagramE MajorE  S S A chord diagramE MajorE  S S A chord diagramE MajorE  S S A chord diagramE MajorE   A chord diagramE MajorE
------------------------------|
------------------------------|
------------------------------|
--9------9------9------9--11--|
--7------7------7------7---9--|
-----0-0----0-0----0-0--------|


  A chord diagramE MajorE  S S A chord diagramE MajorE  S S A chord diagramE MajorE  S S A chord diagramE MajorE   A chord diagramE MajorE
------------------------------|
------------------------------|
------------------------------|
--9------9------9------9--10--|
--7------7------7------7---8--|
-----0-0----0-0----0-0--------|


  A chord diagramE MajorE  A chord diagramE MajorE  A chord diagramE MajorE  A chord diagramE MajorE  A chord diagramE MajorE  A chord diagramE MajorE  A chord diagramE MajorE  A chord diagramE MajorE
--------------------------|
--------------------------|
--------------------------|
--9--8-----8--7-----7--6--|
--7--6--8--6--5--7--5--4--|
--------6--------5--------|


  A chord diagramE MajorE  S S A chord diagramE MajorE  S S A chord diagramE MajorE  S S A chord diagramE MajorE   A chord diagramE MajorE
------------------------------|
------------------------------|
------------------------------|
--9------9------9------9--12--|
--7------7------7------7--10--|
-----0-0----0-0----0-0--------|


  A chord diagramE MajorE  S S A chord diagramE MajorE  S S A chord diagramE MajorE  S S A chord diagramE MajorE   A chord diagramE MajorE
------------------------------|
------------------------------|
------------------------------|
--9------9------9------9--11--|
--7------7------7------7---9--|
-----0-0----0-0----0-0--------|


  A chord diagramE MajorE  S S A chord diagramE MajorE  S S A chord diagramE MajorE  S S A chord diagramE MajorE   A chord diagramE MajorE
------------------------------|
------------------------------|
------------------------------|
--9------9------9------9--10--|
--7------7------7------7---8--|
-----0-0----0-0----0-0--------|


  A chord diagramE MajorE  A chord diagramE MajorE  A chord diagramE MajorE  A chord diagramE MajorE  A chord diagramE MajorE  A chord diagramE MajorE  A chord diagramE MajorE  A chord diagramE MajorE
--------------------------|
--------------------------|
--------------------------|
--9--8-----8--7-----7--6--|
--7--6--8--6--5--7--5--4--|
--------6--------5--------|


  A chord diagramE MajorE  S S A chord diagramE MajorE  S S A chord diagramE MajorE  S S A chord diagramE MajorE   A chord diagramE MajorE
------------------------------|
------------------------------|
------------------------------|
--9------9------9------9--12--|
--7------7------7------7--10--|
-----0-0----0-0----0-0--------|


  A chord diagramE MajorE  S S A chord diagramE MajorE  S S A chord diagramE MajorE  S S A chord diagramE MajorE   A chord diagramE MajorE
------------------------------|
------------------------------|
------------------------------|
--9------9------9------9--11--|
--7------7------7------7---9--|
-----0-0----0-0----0-0--------|


                                 solo3
                                 W
  A chord diagramE MajorE  S S A chord diagramE MajorE  S S A chord diagramE MajorE  S S A chord diagramE MajorE   A chord diagramE MajorE     W
------------------------------|-------------------|
------------------------------|-------------------|
------------------------------|--0----------------|
--9------9------9------9--10--|-------------------|
--7------7------7------7---8--|-------------------|
-----0-0----0-0----0-0--------|-------------------|


  W                   W
  W                   W
-------------------|-------------------|
-------------------|-------------------|
--L----------------|--L----------------|
-------------------|-------------------|
-------------------|-------------------|
-------------------|-------------------|


                                       |---3---|
   S  S  S  S  S  S  S  S  S  S  S  S  A chord diagramE MajorE   A chord diagramE MajorE   A chord diagramE MajorE
--------------------------------------------------|
--------------------------------------------------|
--12-14-16-14-12-14-16-14-12-14-16-14-12--14--16--|
--------------------------------------------------|
--------------------------------------------------|
--------------------------------------------------|


   |---3---|   |-----3----|
   A chord diagramE MajorE   A chord diagramE MajorE   A chord diagramE MajorE   A chord diagramE MajorE   A chord diagramE MajorE   S  S  S  S  S  S  T  T  S  S  S
-------------------------------------------------------|
--------------12--13--15-13-12-------12-13-15-13-12----|
--14--12--14-------------------14-12----------------14-|
-------------------------------------------------------|
-------------------------------------------------------|
-------------------------------------------------------|


   |---3---|   |---3--|                  |-----5-----|
   A chord diagramE MajorE   A chord diagramE MajorE   A chord diagramE MajorE   A chord diagramE MajorE  A chord diagramE MajorE   A chord diagramE MajorE   T  T  S  S  S  S  S  S  S  S
---------------------12--13-12-15-13-12----------------|
--12--13--15--12--5---------------------15-13-12-13-12-|
-------------------------------------------------------|
-------------------------------------------------------|
-------------------------------------------------------|
-------------------------------------------------------|


              |---3---|        |----3---|
   A chord diagramE MajorE   S   S  S   S   S  S  S  A chord diagramE MajorE    A chord diagramE MajorE   A chord diagramE MajorE   Q
-------------------------------------------------|
-----------------------------------15--15b--L----|
--14--12h-14-12h-14p-12----12-14b----------------|
------------------------14-----------------------|
-------------------------------------------------|
-------------------------------------------------|


    A chord diagramE MajorE    Q.      Q      Q
----------------12-----12-----|
--(15)--15------15b----15b----|
------------------------------|
------------------------------|
------------------------------|
------------------------------|


   Q      Q      H
--14-----14-----14---------|
--17b----17b----17b--------|
---------------------------|
---------------------------|
---------------------------|
---------------------------|


   Q.       A chord diagramE MajorE    Q.       A chord diagramE MajorE
--15-------15---17-------17---|
--18b------18b--20b------20b--|
------------------------------|
------------------------------|
------------------------------|
------------------------------|


   Q       S      S     S  S    S  S  S  S  A chord diagramE MajorE   S  S
--18------18-----18----18-18---18-18-18-18-18--21-21-|
--21b----(21)pb-(21)pb----21pb-----------------------|
-----------------------------------------------------|
-----------------------------------------------------|
-----------------------------------------------------|
-----------------------------------------------------|


    Q.         A chord diagramE MajorE     Q      Q
--(21)b~------21pb~--L~----21pb~----|
------------------------------------|
------------------------------------|
------------------------------------|
------------------------------------|
------------------------------------|


    Q         Q        S  S  S   S  S  S  S   S
--(21)pb~----21pb~----19-19-22p-19----19-22p-19-|
-----------------------------------22-----------|
------------------------------------------------|
------------------------------------------------|
------------------------------------------------|
------------------------------------------------|


                                     |---3---|
   S  S  S   S  S   S  S   S  S  S   S   S   S   S  S  S
-----19-22p-19-------------------------------------------|
--22-----------22p-19-22p-19----19h-22p-19h-22p-19-19----|
-----------------------------21-----------------------22-|
---------------------------------------------------------|
---------------------------------------------------------|
---------------------------------------------------------|


   S   S  A chord diagramE MajorE   H         Q
-----------------------------|
--22p-19-----19---------L----|
---------21--21b--------L----|
-----------------------------|
-----------------------------|
-----------------------------|


  A chord diagramE MajorE  S S A chord diagramE MajorE  S S A chord diagramE MajorE  A chord diagramE MajorE  A chord diagramE MajorE  A chord diagramE MajorE
----------------------------|
----------------------------|
----------------------------|
----------------------------|
--4------4------4--5--4-----|
--2--0-0-2--0-0-2--3--2--0--|


  A chord diagramE MajorE  S S A chord diagramE MajorE  S S A chord diagramE MajorE  A chord diagramE MajorE  A chord diagramE MajorE  A chord diagramE MajorE     A chord diagramE MajorE  A chord diagramE MajorE  A chord diagramE MajorE  A chord diagramE MajorE  A chord diagramE MajorE  A chord diagramE MajorE  A chord diagramE MajorE  A chord diagramE MajorE
----------------------------|--------------------------|
----------------------------|--------------------------|
----------------------------|--------------------------|
----------------------------|--8--7-----7--6-----6--5--|
--4------4------4--5--4-----|--6--5--7--5--4--6--4--3--|
--2--0-0-2--0-0-2--3--2--0--|--------5--------4--------|


  A chord diagramE MajorE  S S A chord diagramE MajorE  S S A chord diagramE MajorE  A chord diagramE MajorE  A chord diagramE MajorE  A chord diagramE MajorE
----------------------------|
----------------------------|
----------------------------|
----------------------------|
--4------4------4--5--4-----|
--2--0-0-2--0-0-2--3--2--0--|


  A chord diagramE MajorE  S S A chord diagramE MajorE  S S A chord diagramE MajorE  A chord diagramE MajorE  A chord diagramE MajorE  A chord diagramE MajorE
----------------------------|
----------------------------|
----------------------------|
----------------------------|
--4------4------4--5--4-----|
--2--0-0-2--0-0-2--3--2--0--|


  A chord diagramE MajorE  S S A chord diagramE MajorE  S S A chord diagramE MajorE  A chord diagramE MajorE  A chord diagramE MajorE  A chord diagramE MajorE     A chord diagramE MajorE  A chord diagramE MajorE  A chord diagramE MajorE  A chord diagramE MajorE  A chord diagramE MajorE  A chord diagramE MajorE  A chord diagramE MajorE  A chord diagramE MajorE
----------------------------|--------------------------|
----------------------------|--------------------------|
----------------------------|--------------------------|
----------------------------|--8--7-----7--6-----6--5--|
--4------4------4--5--4-----|--6--5--7--5--4--6--4--3--|
--2--0-0-2--0-0-2--3--2--0--|--------5--------4--------|


    A chord diagramE MajorE  S S A chord diagramE MajorE  S S A chord diagramE MajorE  A chord diagramE MajorE  A chord diagramE MajorE  A chord diagramE MajorE
|-----------------------------|
|-----------------------------|
|*----------------------------|
|*----------------------------|
|---4------4------4--5--4-----|
|---2--0-0-2--0-0-2--3--2--0--|


  A chord diagramE MajorE  A chord diagramE MajorE  A chord diagramE MajorE  A chord diagramE MajorE  A chord diagramE MajorE  A chord diagramE MajorE  A chord diagramE MajorE  A chord diagramE MajorE   3x  A chord diagramE MajorE  A chord diagramE MajorE  A chord diagramE MajorE  A chord diagramE MajorE  A chord diagramE MajorE  A chord diagramE MajorE  A chord diagramE MajorE  A chord diagramE MajorE
---------------------------||--------------------------|
---------------------------||--------------------------|
--------------------------*||--------------------------|
--8--7-----7--6-----6--5--*||--8--7-----7--6-----6--5--|
--6--5--7--5--4--6--4--3---||--6--5--7--5--4--6--4--3--|
--------5--------4---------||--------5--------4--------|


        W
-----|-------------------|-------------------|
-----|-------------------|-------------------|
-----|-------------------|-------------------|
-----|-------------------|-------------------|
-----|-------------------|-------------------|
-----|-------------------|-------------------|


-------------------|-------------------|
-------------------|-------------------|
-------------------|-------------------|
-------------------|-------------------|
-------------------|-------------------|
-------------------|-------------------|


-------------------|-------------------|
-------------------|-------------------|
-------------------|-------------------|
-------------------|-------------------|
-------------------|-------------------|
-------------------|-------------------|


  Rhy Fig 1
  S         S S S  S S S S S S S S  S  S S S
---------------------------------------------|
---------------------------------------------|
---------------------------------------------|
------------------10-9-8---------------------|
-------------------8-7-6-----------11-10-9---|
--0---------0-0-0--------0-0-0-0-0--9--8-7-0-|


                                       End
  S S S S  S S S S  S  S  S S  S  S  S S
-------------------------------------------|
-------------------------------------------|
-------------------------------------------|
----------10-9-8---12-11-10----------------|
-----------8-7-6---10--9--8---12-11-10-----|
--0-0-0-0--------0----------0-10--9--8-0---|


  Rhy Fig 1
  S         S S S  S S S S S S S S  S  S S S
---------------------------------------------|
---------------------------------------------|
---------------------------------------------|
------------------10-9-8---------------------|
-------------------8-7-6-----------11-10-9---|
--0---------0-0-0--------0-0-0-0-0--9--8-7-0-|


  S S S S  S S S S  S  S  S S S S A chord diagramE MajorE
-------------------------------------|-----||
-------------------------------------|-----||
-------------------------------------|-----||
----------10-9-8---12-11-10----------|-----||
-----------8-7-6---10--9--8---5-4-2--|-----||
--0-0-0-0--------0----------0-3-2-0--|-----||


Jeff Hanneman rhythm guitar


              S S S S S S S S S S S S S S S S S S S S
A chord diagramC majorC ||-------|------------------------------------------|
A chord diagramG MajorG ||-------|------------------------------------------|
D#||-------|----------8-7-----------------------------|
A#||-------|--------9-------------8-7-----------------|
A chord diagramFF ||-------|--------------------9-------------7-6-----|
A chord diagramC majorC ||-------|--0-0-0-------0-0-0-------0-0-0-8-----7-6-|


  S S S S S S S S S S S S S S S S S S S S
------------------------------------------|
------------------------------------------|
----------8-7-----------------------------|
--------9-------------8-7-----------------|
--------------------9-------------7-6-----|
--0-0-0-------0-0-0-------0-0-0-8-----7-6-|


  S S S S S S S S S S S S S S S S S S S S
------------------------------------------|
------------------------------------------|
----------8-7-----------------------------|
--------9-------------8-7-----------------|
--------------------9-------------7-6-----|
--0-0-0-------0-0-0-------0-0-0-8-----7-6-|


  S S S S S S S S S S S S S S S S S S S S
------------------------------------------|
------------------------------------------|
----------8-7-----------------------------|
--------9-------------8-7-----------------|
--------------------9-------------7-6-----|
--0-0-0-------0-0-0-------0-0-0-8-----7-6-|


  S S S S S S S S S S S S S S S S S S S S
------------------------------------------|
------------------------------------------|
----------8-7-----------------------------|
--------9-------------8-7-----------------|
--------------------9-------------7-6-----|
--0-0-0-------0-0-0-------0-0-0-8-----7-6-|


  S S S S S S S S S S S S S S S S S S S S    A chord diagramE MajorE  Q
------------------------------------------|----------|
------------------------------------------|----------|
----------8-7-----------------------------|----------|
--------9-------------8-7-----------------|----------|
--------------------9-------------7-6-----|--2-------|
--0-0-0-------0-0-0-------0-0-0-8-----7-6-|--0-------|


  Rhy Fig 1
  S         S S S  S S S S S S S S  S  S S S
---------------------------------------------|
---------------------------------------------|
---------------------------------------------|
------------------10-9-8---------------------|
-------------------8-7-6-----------11-10-9---|
--0---------0-0-0--------0-0-0-0-0--9--8-7-0-|


                                       End
  S S S S  S S S S  S  S  S S  S  S  S S
-------------------------------------------|
-------------------------------------------|
-------------------------------------------|
----------10-9-8---12-11-10----------------|
-----------8-7-6---10--9--8---12-11-10-----|
--0-0-0-0--------0----------0-10--9--8-0---|


  S S S S  S S S S S S S S  S  S S S
-------------------------------------|
-------------------------------------|
-------------------------------------|
----------10-9-8---------------------|
-----------8-7-6-----------11-10-9---|
--0-0-0-0--------0-0-0-0-0--9--8-7-0-|


  S S S S  S S S S  S  S  S S  S  S  S S
-----------------------------------------|
-----------------------------------------|
-----------------------------------------|
----------10-9-8---12-11-10--------------|
-----------8-7-6---10--9--8---12-11-10---|
--0-0-0-0--------0----------0-10--9--8-0-|


  Rhy Fig 1
  S         S S S  S S S S S S S S  S  S S S
---------------------------------------------|
---------------------------------------------|
---------------------------------------------|
------------------10-9-8---------------------|
-------------------8-7-6-----------11-10-9---|
--0---------0-0-0--------0-0-0-0-0--9--8-7-0-|


                                       End
  S S S S  S S S S  S  S  S S  S  S  S S
-------------------------------------------|
-------------------------------------------|
-------------------------------------------|
----------10-9-8---12-11-10----------------|
-----------8-7-6---10--9--8---12-11-10-----|
--0-0-0-0--------0----------0-10--9--8-0---|


  Rhy Fig 1
  S         S S S  S S S S S S S S  S  S S S
---------------------------------------------|
---------------------------------------------|
---------------------------------------------|
------------------10-9-8---------------------|
-------------------8-7-6-----------11-10-9---|
--0---------0-0-0--------0-0-0-0-0--9--8-7-0-|


                                       End
  S S S S  S S S S  S  S  S S  S  S  S S
-------------------------------------------|
-------------------------------------------|
-------------------------------------------|
----------10-9-8---12-11-10----------------|
-----------8-7-6---10--9--8---12-11-10-----|
--0-0-0-0--------0----------0-10--9--8-0---|


  Rhy Fig 1
  S         S S S  S S S S S S S S  S  S S S
---------------------------------------------|
---------------------------------------------|
---------------------------------------------|
------------------10-9-8---------------------|
-------------------8-7-6-----------11-10-9---|
--0---------0-0-0--------0-0-0-0-0--9--8-7-0-|


                                       End
  S S S S  S S S S  S  S  S S  S  S  S S
-------------------------------------------|
-------------------------------------------|
-------------------------------------------|
----------10-9-8---12-11-10----------------|
-----------8-7-6---10--9--8---12-11-10-----|
--0-0-0-0--------0----------0-10--9--8-0---|


  Rhy Fig 1
  S         S S S  S S S S S S S S  S  S S S
---------------------------------------------|
---------------------------------------------|
---------------------------------------------|
------------------10-9-8---------------------|
-------------------8-7-6-----------11-10-9---|
--0---------0-0-0--------0-0-0-0-0--9--8-7-0-|


                                       End
  S S S S  S S S S  S  S  S S  S  S  S S
-------------------------------------------|
-------------------------------------------|
-------------------------------------------|
----------10-9-8---12-11-10----------------|
-----------8-7-6---10--9--8---12-11-10-----|
--0-0-0-0--------0----------0-10--9--8-0---|


  Rhy Fig 2
  S         S S S S S S S S S S S A chord diagramE MajorE  A chord diagramE MajorE
----------------------------------------|
----------------------------------------|
----------------------------------------|
----------------------------------------|
--4---------4-4-4---3-2---4-4-4-4-5--5--|
--2---------2-2-2-4-----3-2-2-2-2-3--3--|


  S S S S S S S S S S S S A chord diagramE MajorE  A chord diagramE MajorE
--------------------------------|
--------------------------------|
--------------------------------|
--------------------------------|
--4-4-4-4---3-2---4-4-4-4-5--7--|
--2-2-2-2-4-----3-2-2-2-2-3--5--|


  S S S S S S S S S S S S A chord diagramE MajorE  A chord diagramE MajorE
--------------------------------|
--------------------------------|
--------------------------------|
--------------------------------|
--4-4-4-4---3-2---4-4-4-4-5--5--|
--2-2-2-2-4-----3-2-2-2-2-3--3--|


                               End
  S S S S S S S S  A chord diagramE MajorE   A chord diagramE MajorE   A chord diagramE MajorE   A chord diagramE MajorE
----------------------------------|
----------------------------------|
----------------------------------|
------------------14--14--12--12--|
--4-4-4-4---3-2---12--12--10--10--|
--2-2-2-2-4-----3-----------------|


  Rhy Fig 2
  S         S S S S S S S S S S S A chord diagramE MajorE  A chord diagramE MajorE
----------------------------------------|
----------------------------------------|
----------------------------------------|
----------------------------------------|
--4---------4-4-4---3-2---4-4-4-4-5--5--|
--2---------2-2-2-4-----3-2-2-2-2-3--3--|


  S S S S S S S S S S S S A chord diagramE MajorE  A chord diagramE MajorE
--------------------------------|
--------------------------------|
--------------------------------|
--------------------------------|
--4-4-4-4---3-2---4-4-4-4-5--7--|
--2-2-2-2-4-----3-2-2-2-2-3--5--|


  S S S S S S S S S S S S A chord diagramE MajorE  A chord diagramE MajorE
--------------------------------|
--------------------------------|
--------------------------------|
--------------------------------|
--4-4-4-4---3-2---4-4-4-4-5--5--|
--2-2-2-2-4-----3-2-2-2-2-3--3--|


                               End
  S S S S S S S S  A chord diagramE MajorE   A chord diagramE MajorE   A chord diagramE MajorE   A chord diagramE MajorE
----------------------------------|
----------------------------------|
----------------------------------|
------------------14--14--12--12--|
--4-4-4-4---3-2---12--12--10--10--|
--2-2-2-2-4-----3-----------------|


  Rhy Fig 1
  S         S S S  S S S S S S S S  S  S S S
---------------------------------------------|
---------------------------------------------|
---------------------------------------------|
------------------10-9-8---------------------|
-------------------8-7-6-----------11-10-9---|
--0---------0-0-0--------0-0-0-0-0--9--8-7-0-|


                                       End
  S S S S  S S S S  S  S  S S  S  S  S S
-------------------------------------------|
-------------------------------------------|
-------------------------------------------|
----------10-9-8---12-11-10----------------|
-----------8-7-6---10--9--8---12-11-10-----|
--0-0-0-0--------0----------0-10--9--8-0---|


  Rhy Fig 1
  S         S S S  S S S S S S S S  S  S S S
---------------------------------------------|
---------------------------------------------|
---------------------------------------------|
------------------10-9-8---------------------|
-------------------8-7-6-----------11-10-9---|
--0---------0-0-0--------0-0-0-0-0--9--8-7-0-|


                                       End
  S S S S  S S S S  S  S  S S  S  S  S S
-------------------------------------------|
-------------------------------------------|
-------------------------------------------|
----------10-9-8---12-11-10----------------|
-----------8-7-6---10--9--8---12-11-10-----|
--0-0-0-0--------0----------0-10--9--8-0---|


  Rhy Fig 1
  S         S S S  S S S S S S S S  S  S S S
---------------------------------------------|
---------------------------------------------|
---------------------------------------------|
------------------10-9-8---------------------|
-------------------8-7-6-----------11-10-9---|
--0---------0-0-0--------0-0-0-0-0--9--8-7-0-|


                                       End
  S S S S  S S S S  S  S  S S  S  S  S S
-------------------------------------------|
-------------------------------------------|
-------------------------------------------|
----------10-9-8---12-11-10----------------|
-----------8-7-6---10--9--8---12-11-10-----|
--0-0-0-0--------0----------0-10--9--8-0---|


  Rhy Fig 1
  S         S S S  S S S S S S S S  S  S S S
---------------------------------------------|
---------------------------------------------|
---------------------------------------------|
------------------10-9-8---------------------|
-------------------8-7-6-----------11-10-9---|
--0---------0-0-0--------0-0-0-0-0--9--8-7-0-|


                                       End
  S S S S  S S S S  S  S  S S  S  S  S S
-------------------------------------------|
-------------------------------------------|
-------------------------------------------|
----------10-9-8---12-11-10----------------|
-----------8-7-6---10--9--8---12-11-10-----|
--0-0-0-0--------0----------0-10--9--8-0---|


  Rhy Fig 1
  S         S S S  S S S S S S S S  S  S S S
---------------------------------------------|
---------------------------------------------|
---------------------------------------------|
------------------10-9-8---------------------|
-------------------8-7-6-----------11-10-9---|
--0---------0-0-0--------0-0-0-0-0--9--8-7-0-|


                                       End
  S S S S  S S S S  S  S  S S  S  S  S S
-------------------------------------------|
-------------------------------------------|
-------------------------------------------|
----------10-9-8---12-11-10----------------|
-----------8-7-6---10--9--8---12-11-10-----|
--0-0-0-0--------0----------0-10--9--8-0---|


  Rhy Fig 1
  S         S S S  S S S S S S S S  S  S S S
---------------------------------------------|
---------------------------------------------|
---------------------------------------------|
------------------10-9-8---------------------|
-------------------8-7-6-----------11-10-9---|
--0---------0-0-0--------0-0-0-0-0--9--8-7-0-|


                                       End
  S S S S  S S S S  S  S  S S  S  S  S S
-------------------------------------------|
-------------------------------------------|
-------------------------------------------|
----------10-9-8---12-11-10----------------|
-----------8-7-6---10--9--8---12-11-10-----|
--0-0-0-0--------0----------0-10--9--8-0---|


  Rhy Fig 2
  S         S S S S S S S S S S S A chord diagramE MajorE  A chord diagramE MajorE
----------------------------------------|
----------------------------------------|
----------------------------------------|
----------------------------------------|
--4---------4-4-4---3-2---4-4-4-4-5--5--|
--2---------2-2-2-4-----3-2-2-2-2-3--3--|


  S S S S S S S S S S S S A chord diagramE MajorE  A chord diagramE MajorE
--------------------------------|
--------------------------------|
--------------------------------|
--------------------------------|
--4-4-4-4---3-2---4-4-4-4-5--7--|
--2-2-2-2-4-----3-2-2-2-2-3--5--|


  S S S S S S S S S S S S A chord diagramE MajorE  A chord diagramE MajorE
--------------------------------|
--------------------------------|
--------------------------------|
--------------------------------|
--4-4-4-4---3-2---4-4-4-4-5--5--|
--2-2-2-2-4-----3-2-2-2-2-3--3--|


                               End
  S S S S S S S S  A chord diagramE MajorE   A chord diagramE MajorE   A chord diagramE MajorE   A chord diagramE MajorE
----------------------------------|
----------------------------------|
----------------------------------|
------------------14--14--12--12--|
--4-4-4-4---3-2---12--12--10--10--|
--2-2-2-2-4-----3-----------------|


  Rhy Fig 2
  S         S S S S S S S S S S S A chord diagramE MajorE  A chord diagramE MajorE
----------------------------------------|
----------------------------------------|
----------------------------------------|
----------------------------------------|
--4---------4-4-4---3-2---4-4-4-4-5--5--|
--2---------2-2-2-4-----3-2-2-2-2-3--3--|


  S S S S S S S S S S S S A chord diagramE MajorE  A chord diagramE MajorE
--------------------------------|
--------------------------------|
--------------------------------|
--------------------------------|
--4-4-4-4---3-2---4-4-4-4-5--7--|
--2-2-2-2-4-----3-2-2-2-2-3--5--|


  S S S S S S S S S S S S A chord diagramE MajorE  A chord diagramE MajorE
--------------------------------|
--------------------------------|
--------------------------------|
--------------------------------|
--4-4-4-4---3-2---4-4-4-4-5--5--|
--2-2-2-2-4-----3-2-2-2-2-3--3--|


                           End
  S S S S S S S S A chord diagramE MajorE  A chord diagramE MajorE  A chord diagramE MajorE  A chord diagramE MajorE
-------------------------------|
-------------------------------|
-------------------------------|
-------------------------------|
--4-4-4-4---3-2---7--7--5--5---|
--2-2-2-2-4-----3-5--5--3--3---|


  Rhy Fig 1
  S         S S S  S S S S S S S S  S  S S S
---------------------------------------------|
---------------------------------------------|
---------------------------------------------|
------------------10-9-8---------------------|
-------------------8-7-6-----------11-10-9---|
--0---------0-0-0--------0-0-0-0-0--9--8-7-0-|


                                       End
  S S S S  S S S S  S  S  S S  S  S  S S
-------------------------------------------|
-------------------------------------------|
-------------------------------------------|
----------10-9-8---12-11-10----------------|
-----------8-7-6---10--9--8---12-11-10-----|
--0-0-0-0--------0----------0-10--9--8-0---|


  Rhy Fig 1
  S         S S S  S S S S S S S S  S  S S S
---------------------------------------------|
---------------------------------------------|
---------------------------------------------|
------------------10-9-8---------------------|
-------------------8-7-6-----------11-10-9---|
--0---------0-0-0--------0-0-0-0-0--9--8-7-0-|


                                       End
  S S S S  S S S S  S  S  S S  S  S  S S
-------------------------------------------|
-------------------------------------------|
-------------------------------------------|
----------10-9-8---12-11-10----------------|
-----------8-7-6---10--9--8---12-11-10-----|
--0-0-0-0--------0----------0-10--9--8-0---|


  Rhy Fig 1
  S         S S S  S S S S S S S S  S  S S S
---------------------------------------------|
---------------------------------------------|
---------------------------------------------|
------------------10-9-8---------------------|
-------------------8-7-6-----------11-10-9---|

Almost there ...

Sign in to get your own page with links to favourite songs and more. You are just one click away...

Login with Facebook Login with Google