Log in

One click and you are in

Login with Facebook Login with Google

Why sign up and log in

Guitar Tabs Explorer
Slayer bass tabs for Angel of death

Bass tabs

Angel of Death - Slaye
                         ======================

Tune down 1/2 step (Eb,Ab,Db,Gb

 210 bp
|-----------------|-----------------|-----------------|-----------------
|-----------------|-----------------|-----------------|-----------------
|-----------------|-----------------|-----------------|-----------------
|-0---------------|-----------------|-----------------|-----------------

|-----------------|-----------------|-----------------|-----------------
|-----------------|-----------------|-----------------|-----------------
|-----------------|-----------------|-----------------|-----------------
|-0-------------1-|-1-------------2-|-2---------------|-1-0-1-5-----4---
|-----------------|-----------------|-----------------|-----------------
|-----------------|-----------------|-----------------|-----------------
|-----------------|-----------------|-----------------|-----------------
|-0-------------1-|-1-------------2-|-2---------------|-1-0-1-5-----4---

|-----------------|-----------------|-----------------|-----------------|
|-----------------|-----------------|-----------------|-----------------|
|-----------------|-----------------|-----------------|-----------------|
|-0-------------1-|-1-------------2-|-2---------------|-1-0-1-5-----4---|

|-----------------|-----------------|-----------------|-----------------
|-----------------|-----------------|-----------------|-----------------
|-----------------|-----------------|-----------------|-----------------
|-0-00000000000-1-|-1-00000000000-2-|-2-00000000000000|-1-0-1-5-----4---

|-----------------|-----------------|-----------------|-----------------
|-----------------|-----------------|-----------------|-----------------
|-----------------|-----------------|-----------------|-----------------
|-0-00000000000-1-|-1-00000000000-2-|-2-00000000000000|-1-0-1-5-----4---

|-----------------|
|-----------------|
|-----------------|
|-1---------------|

|-----------------|-----------------|-----------------|-----------------
|-----------------|-----------------|-----------------|-----------------
|---------1-------|-----------------|---------1-------|-----------------
|-0-00000---00000-|-0-00000-1-4-1---|-0-00000---00000-|-0-00000-1---4---

|-----------------|-----------------|-----------------|-----------------|
|-----------------|-----------------|-----------------|-----------------|
|---------1-------|-----------------|---------1-------|-----------------|
|-0-00000---00000-|-0-00000-1-4-1---|-0-00000---00000-|-0-00000-5---6---|


 verse
|-----------------|-----------------|-----------------|-----------------
|-----------------|-----------------|-----------------|-----------------
|---------1-------|-----------------|---------1-------|-----------------
|-0-00000---00000-|-0-00000-1-4-1---|-0-00000---00000-|-0-00000-1---4---

|-----------------|-----------------|-----------------|-----------------|
|-----------------|-----------------|-----------------|-----------------|
|---------1-------|-----------------|---------1-------|-----------------|
|-0-00000---00000-|-0-00000-1-4-1---|-0-00000---00000-|-0-00000-5---6---|

|-----------------|-----------------|-----------------|-----------------
|-----------------|-----------------|-----------------|-----------------
|-----------------|-----------------|-----------------|-----------------
|-1-1111112-111111|-3-1111114-1-2---|-1-1111112-111111|-3-1111114-1-2---

|-----------------|-----------------|-----------------|-----------------|
|-----------------|-----------------|-----------------|-----------------|
|-----------------|-----------------|-----------------|-----------------|
|-1-1111112-111111|-3-1111114-1-2---|-1-1111112-111111|-3-1111114-1-2---|


 chorus
|-----------------|-----------------|-----------------|-----------------
|-----------------|-----------------|-----------------|-----------------
|-----------------|-----------------|-----------------|-----------------
|-0-00000000000-1-|-1-00000000000-2-|-2-00000000000000|-1-0-1-5-----4---

|-----------------|-----------------|-----------------|-----------------|
|-----------------|-----------------|-----------------|-----------------|
|-----------------|-----------------|-----------------|-----------------|
|-0-00000000000-1-|-1-00000000000-2-|-2-00000000000000|-1-0-1-5-----4---|


 verse
|-----------------|-----------------|-----------------|-----------------
|-----------------|-----------------|-----------------|-----------------
|---------1-------|-----------------|---------1-------|-----------------
|-0-00000---00000-|-0-00000-1-4-1---|-0-00000---00000-|-0-00000-1---4---

|-----------------|-----------------|-----------------|-----------------|
|-----------------|-----------------|-----------------|-----------------|
|---------1-------|-----------------|---------1-------|-----------------|
|-0-00000---00000-|-0-00000-1-4-1---|-0-00000---00000-|-0-00000-5---6---|


 chorus
|-----------------|-----------------|-----------------|-----------------
|-----------------|-----------------|-----------------|-----------------
|-----------------|-----------------|-----------------|-----------------
|-0-00000000000-1-|-1-00000000000-2-|-2-00000000000000|-1-0-1-5-----4---

|-----------------|-----------------|-----------------|-----------------
|-----------------|-----------------|-----------------|-----------------
|-----------------|-----------------|-----------------|-----------------
|-0-00000000000-1-|-1-00000000000-2-|-2-00000000000000|-1-0-1-5-----4---

|-----------------|-----------------|-----------------|-----------------
|-----------------|-----------------|-----------------|-----------------
|-----------------|-----------------|-----------------|-----------------
|-0-00000000000-1-|-1-00000000000-2-|-2-00000000000000|-1-0-1-5-----4---

 2/
|---------|
|---------|
|---------|
|-1-------|


 184 bp
 4/
|-----------------|-----------------|-----------------|-----------------
|-----------------|-----------------|-----------------|-----------------
|-----------------|-----------------|-----------------|-----------------
|-0---------------|-----------------|-----------------|-----------------

|-----------------|-----------------|-----------------|-----------------|
|-----------------|-----------------|-----------------|-----------------|
|-----------------|-----------------|-----------------|-----------------|
|-----------------|-----------------|-----------------|-----------------|


|-----------------|-----------------|-----------------|-----------------
|--hp-------------|--hp----hp----hp-|--hp-------------|-----------------
|-787-------------|-676---565---454-|-787-------------|-----------------
|-----0-0-0-0-0-0-|-----0-----0-----|-----0-0-0-0-0-0-|-0-0-0-0-0-0-0-0-

|-----------------|-----------------|-----------------|-----------------
|--hp-------------|--hp----hp----hp-|--hp-------------|-----------------
|-787-------------|-676---565---454-|-787-------------|-----------------
|-----0-0-0-0-0-0-|-----0-----0-----|-----0-0-0-0-0-0-|-0-0-0-0-0-0-0-0-

|-----------------|-----------------|-----------------|-----------------
|--hp-------------|--hp----hp----hp-|--hp-------------|-----------------
|-787-------------|-676---565---454-|-787-------------|-----------------
|-----0-0-0-0-0-0-|-----0-----0-----|-----0-0-0-0-0-0-|-0-0-0-0-0-0-0-0-

|-----------------|-----------------|
|--hp-------------|--hp----hp----hp-|
|-787-------------|-676---565---454-|
|-----0-0-0-0-0-0-|-----0-----0-----|


 verse
|-----------------|-----------------|-----------------|-----------------
|-----------------|-----------------|-----------------|-----------------
|-----------------|-----------------|-----------------|-----------------
|-0-0-0-1-0-0-0-0-|-0-0-1-0-0-5-6---|-0-0-0-1-0-0-0-0-|-0-0-0-0-0-0-0-0-

|-----------------|-----------------|-----------------|-----------------
|-----------------|-----------------|-----------------|-----------------
|-----------------|-----------------|-----------------|-----------------
|-0-0-0-1-0-0-0-0-|-0-0-1-0-0-5-6---|-0-0-0-1-0-0-0-0-|-0-0-0-0-0-0-0-0-

|-----------------|-----------------|-----------------|-----------------
|-----------------|-----------------|-----------------|-----------------
|-----------------|-----------------|-----------------|-----------------
|-0-0-0-1-0-0-0-0-|-0-0-1-0-0-5-6---|-0-0-0-1-0-0-0-0-|-0-0-0-0-0-0-0-0-

|-----------------|-----------------|-----------------|-----------------
|-----------------|-----------------|-----------------|-6-------3---4---
|-----------------|-----------------|-----------------|---7-5-----4---5-
|-0-0-0-1-0-0-0-0-|-0-0-1-0-0-5-6---|-0-0-0-1-0-0-0-0-|-------6---------

|-----------------|-----------------|-----------------|-----------------
|-----------------|-----------------|-----------------|-6-------3---4---
|-----------------|-----------------|-----------------|---7-5-----4---5-
|-1-1-1-1-1-1-1-1-|-4-------3-----3-|-0-0-0-1-0-0-0-0-|-------6---------

|-----------------|-----------------|
|-----------------|-----------------|
|-----------------|-----------------|
|-1-1-1-1-1-------|-4-------3-------|

|-----------------|-----------------|-----------------|-----------------
|-----------------|-----------------|-----------------|-----------------
|-----------------|-----------------|-----------------|-----------------
|-0-0-0-1-0-0-0-0-|-0-0-1-0-0-5-6---|-0-0-0-1-0-0-0-0-|-0-0-0-0-0-0-0-0-

|-----------------|-----------------|-----------------|-----------------|
|-----------------|-----------------|-----------------|-----------------|
|-----------------|-----------------|-----------------|-----------------|
|-0-0-0-1-0-0-0-0-|-0-0-1-0-0-5-6---|-0-0-0-1-0-0-0-0-|-0-0-0-0-0-0-0-0-|


 verse
|-----------------|-----------------|-----------------|-----------------
|-----------------|-----------------|-----------------|-----------------
|-----------------|-----------------|-----------------|-----------------
|-0-0-0-1-0-0-0-0-|-0-0-1-0-0-5-6---|-0-0-0-1-0-0-0-0-|-0-0-0-0-0-0-0-0-

|-----------------|-----------------|-----------------|-----------------
|-----------------|-----------------|-----------------|-----------------
|-----------------|-----------------|-----------------|-----------------
|-0-0-0-1-0-0-0-0-|-0-0-1-0-0-5-6---|-0-0-0-1-0-0-0-0-|-0-0-0-0-0-0-0-0-

|-----------------|-----------------|-----------------|-----------------
|-----------------|-----------------|-----------------|-----------------
|-----------------|-----------------|-----------------|-----------------
|-0-0-0-1-0-0-0-0-|-0-0-1-0-0-5-6---|-0-0-0-1-0-0-0-0-|-0-0-0-0-0-0-0-0-

|-----------------|-----------------|-----------------|-----------------
|-----------------|-----------------|-----------------|-6-------3---4---
|-----------------|-----------------|-----------------|---7-5-----4---5-
|-0-0-0-1-0-0-0-0-|-0-0-1-0-0-5-6---|-0-0-0-1-0-0-0-0-|-------6---------

|-----------------|-----------------|-----------------|-----------------
|-----------------|-----------------|-----------------|-6-------3---4---
|-----------------|-----------------|-----------------|---7-5-----4---5-
|-1-1-1-1-1-------|-4-------3-------|-0-0-0-1-0-0-0-0-|-------6---------

|-----------------|-----------------|
|-----------------|-----------------|
|-----------------|-----------------|
|-1-1-1-1-1-------|-4-------3-------|

|-----------------|-----------------|-----------------|-----------------
|--hp-------------|--hp----hp----hp-|--hp-------------|-----------------
|-787-------------|-676---565---454-|-787-------------|-----------------
|-----0-0-0-0-0-0-|-----0-----0-----|-----0-0-0-0-0-0-|-0-0-0-0-0-0-0-0-

|-----------------|-----------------|-----------------|-----------------
|--hp-------------|--hp----hp----hp-|--hp-------------|-----------------
|-787-------------|-676---565---454-|-787-------------|-----------------
|-----0-0-0-0-0-0-|-----0-----0-----|-----0-0-0-0-0-0-|-0-0-0-0-0-0-0-0-

|-----------------|-----------------|-----------------|-----------------
|--hp-------------|--hp----hp----hp-|--hp-------------|-----------------
|-787-------------|-676---565---454-|-787-------------|-----------------
|-----0-0-0-0-0-0-|-----0-----0-----|-----0-0-0-0-0-0-|-0-0-0-0-0-0-0-0-

|-----------------|-----------------|-----------------|
|--hp-------------|--hp----hp----hp-|-----------------|
|-787-------------|-676---565---454-|-8---------------|
|-----0-0-0-0-0-0-|-----0-----0-----|-----------------|


 guitar solo
 232 bp
|-----------------|-----------------|-----------------|-----------------
|-----------------|-----------------|-----------------|-----------------
|-----------------|-----------------|-----------------|-----------------
|-0-00000000000-6-|-6-00000000000-2-|-2-00000000000-6-|-6-0000002-0-3---

|-----------------|-----------------|-----------------|-----------------
|-----------------|-----------------|-----------------|-----------------
|-----------------|-----------------|-----------------|-----------------
|-0-00000000000-6-|-6-00000000000-2-|-2-00000000000-6-|-6-0000002-0-3---

|-----------------|-----------------|-----------------|-----------------
|-----------------|-----------------|-----------------|-----------------
|-----------------|-----------------|-----------------|-----------------
|-0-00000000000-6-|-6-00000000000-2-|-2-00000000000-6-|-6-0000002-0-3---

|-----------------|-----------------|-----------------|-----------------|
|-----------------|-----------------|-----------------|-----------------|
|-----------------|-----------------|-----------------|-----------------|
|-0-00000000000-6-|-6-00000000000-2-|-2-00000000000-6-|-6-0000002-0-3---|

|-----------------|-----------------|-----------------|-----------------
|-----------------|-----------------|-----------------|-----------------
|-----------------|-----------------|-----------------|-----------------
|-1-1111112-111111|-3-1111114-1-2---|-1-1111112-111111|-3-1111114-1-2---

|-----------------|-----------------|-----------------|-----------------|
|-----------------|-----------------|-----------------|-----------------|
|-----------------|-----------------|-----------------|-----------------|
|-1-1111112-111111|-3-1111114-1-2---|-1-1111112-111111|-3-1111114-1-2---|

|-----------------|-----------------|-----------------|-----------------
|-----------------|-----------------|-----------------|-----------------
|-----------------|-------------5---|-----------------|-------------5---
|-4-4444445-444444|-6-4444447-4-----|-4-4444445-444444|-6-4444447-4-----

|-----------------|-----------------|-----------------|-----------------|
|-----------------|-----------------|-----------------|-----------------|
|-----------------|-------------5---|-----------------|-------------5---|
|-4-4444445-444444|-6-4444447-4-----|-4-4444445-444444|-6-4444447-4-----|

|-----------------|-----------------|-----------------|-----------------|
|-----------------|-----------------|-----------------|-----------------|
|-----------------|-----------------|-----------------|-----------------|
|-1-1111112-111111|-3-1111114-1-2---|-1-1111112-111111|-3-1111114-1-2---|

|-----------------|-----------------|-----------------|-----------------|
|-----------------|-----------------|-----------------|-----------------|
|-----------------|-------------5---|-----------------|-------------5---|
|-4-4444445-444444|-6-4444447-4-----|-4-4444445-444444|-6-4444447-4-----|

|-----------------|-----------------|-----------------|-----------------
|-----------------|-----------------|-----------------|-----------------
|-----------------|-----------------|-----------------|-----------------
|-1-1111112-111111|-3-1111114-1-2---|-1-1111112-111111|-3-1111114-1-2---

|-----------------|-----------------|-----------------|-----------------
|-----------------|-----------------|-----------------|-----------------
|-----------------|-----------------|-----------------|-----------------
|-1-1111112-111111|-3-1111114-1-2---|-1-1111112-111111|-0---------------

|-----------------|-----------------|
|-----------------|-----------------|
|-----------------|-----------------|
|-----------------|-----------------|


 tempo
|-----------------|-----------------|-----------------|-----------------
|-----------------|-----------------|-----------------|-----------------
|-----------------|-----------------|-----------------|-----------------
|-0-00000000000-1-|-1-00000000000-2-|-2-00000000000000|-1-0-1-5-----4---

|-----------------|-----------------|-----------------|-----------------
|-----------------|-----------------|-----------------|-----------------
|-----------------|-----------------|-----------------|-----------------
|-0-00000000000-1-|-1-00000000000-2-|-2-00000000000000|-1-0-1-5-----4---

|-----------------|-----------------|-----------------|-----------------
|-----------------|-----------------|-----------------|-----------------
|-----------------|-----------------|-----------------|-----------------
|-0-00000000000-1-|-1-00000000000-2-|-2-00000000000000|-1-0-1-5-----4---

|-----------------|-----------------|-----------------|-----------------
|-----------------|-----------------|-----------------|-----------------
|-----------------|-----------------|-----------------|-----------------
|-0-00000000000-1-|-1-00000000000-2-|-2-00000000000000|-1-0-1-5-----4---

|-----------------|-----------------|
|-----------------|-----------------|
|---------------7-|-7---------------|
|-1---------------|-----------------|

Almost there ...

Sign in to get your own page with links to favourite songs and more. You are just one click away...

Login with Facebook Login with Google