Log in

One click and you are in

Login with Facebook Login with Google

Why sign up and log in

Guitar Tabs Explorer
Slayer guitar tabs for Americon

Guitar tabs with lyrics

Band: Slayer
Album: World Painted Blood

Tuning: A chord diagramEb MajorEb
Difficulty: Novice
Intro Riff

Eb-------------------------------------------|
Bb-------------------------------------------|
Gb-------------------------------------------|
Db-----4-4-4/5-3-5-5-7-5---------------------|
Ab-----2-2-2/3-3-3-3-5-3---------------------|
Eb-12\---------------------------------------|


Verse Riff

Eb-------------------------------------------|
Bb-------------------------------------------|
Gb-------------------------------------------|
Db-------------------------------------------|
Ab-3-0-3-0-3-0-3-0-4-3-----------------------|
Eb-1-0-1-0-1-0-1-0-2-1--0-0-0-0--------------|


Verse Riff 2
Eb--------------------------------------------------|
Bb--------------------------------------------------|
Gb--------------------------------------------------|
Db--------------------------------------------------|
Ab-9-9-9-/10-10-10-10-12-11-------------------------|
Eb-7-7-7-/8—8---8-8---10-9--------------------|

Solo 1 Backing

Eb-------------------------------------------|
Bb-------------------------------------------|
Gb-------------------------------------------|
Db-------------------------------------------|
Ab-5-4-2-------------------------------------|
Eb-3-2-0-------------------------------------|


Solo 2 Backing

Eb---------------------------------------------------------------------|
Bb---------------------------------------------------------------------|
Gb---------------------------------------------------------------------|
Db---------------------------------------------------------------------|
Ab---------------------------------------------------------------------|
Eb-0000-1111-0000-1111--0000-4444-3333-1111-0000—----------------|



Solo 2 Backing Cont.

Eb-----------------------------------------------------------------|
Bb-----------------------------------------------------------------|
Gb-----------------------------------------------------------------|
Db-----------------------------------------------------------------|
Ab-----------------------------------------------------------------|
Eb-0000-1111-0000-0000-1111-0000-1111-0000-4444--------------------|


Solo 2 Backing Cont.

Eb-----------------------------------------------------------------|
Bb-----------------------------------------------------------------|
Gb-----------------------------------------------------------------|
Db-----------------------------------------------------------------|
Ab-----------------------------------------------------------------|
Eb-3333-1111-00000000-4444-3333-1111-0000--------------------------|


Ending Riff

Eb-----------------------------------------------------------------|
Bb-----------------------------------------------------------------|
Gb-----------------------------------------------------------------|
Db-----------------------------------------------------------------|
Ab-3-4-4-2-3-4-3-4-3-----------------------------------------------|
Eb-1-2-2-2-1-2-1-2-1-0-0-0-0-0-0-----------------------------------|


Key

H = Hammer On
P = Pull Off
\ = Slide Down
/ = Slide up

Song Structure


Intro Riff x 8

Riff 1 x 4

Riff 2 2 x 4

Riff 1 x 4

Riff 1 2 x 4

Riff 3 x 4

Riff 2 x 4

Solo 1 Backing x 8

Solo 2 Backing x 1

Solo 2 Backing Cont x 1

Riff 3 x 1

Intro Riff x 4

Riff 3 x 4

Solo 2 Backing x 1

Solo 2 Backing Cont x 1

Almost there ...

Sign in to get your own page with links to favourite songs and more. You are just one click away...

Login with Facebook Login with Google