Log in

One click and you are in

Login with Facebook Login with Google

Why sign up and log in

Guitar Tabs Explorer
Slayer bass tabs for Altar of sacrifice

Bass tabs

*********************************************************************
This tab file was downloaded from THE ABYSS - the complete Slayer site                      http://www.slaytanic.com
*********************************************************************
                       Altar of Sacrifice - Slaye
                       ==========================

Tune down 1/2 step (Eb,Ab,Db,Gb

 166 bp
 9/
|-------------------|-------------------|-------------------|
|-------------------|-------------------|-------------------|
|-------------------|-------------------|-------------------|
|-2-2-2-2-----2-----|-2-2-2-2-----2-----|-2-----2-2-2-2-----|

 222 bp
 4/
|-----------------|-----------------|-----------------|-----------------
|-----------------|-----------------|-----------------|-----------------
|-----------------|-----------------|-----------------|-----------------
|-2222222222222222|-2222222222222222|-2222222222222222|-2222222222222222

|-----------------|-----------------|-----------------|-----------------|
|-----------------|-----------------|-----------------|-----------------|
|-----------------|-----------------|-----------------|-----------------|
|-2222222222222222|-2222222222222222|-2222222222222222|-2222222222222222|

 verse
|-----------------|-----------------|-----------------|-----------------
|-----------------|-----------------|-----------------|-----------------
|-----------------|-----------------|-----------------|-----------------
|-2222222222222222|-2222222222222222|-2222222222222222|-2222222222222222

|-----------------|-----------------|-----------------|-----------------|
|-----------------|-----------------|-----------------|-----------------|
|-----------------|-----------------|-----------------|-----------------|
|-2222222222222222|-2222222222222222|-2222222222222222|-2222222222222222|

|-----------------|-----------------|-----------------|-----------------
|-----------------|-----------------|-----------------|-----------------
|-------------3---|-------------4---|-------------6---|-------------5---
|-3-33333-6-3-----|-3-33333-6-3-----|-3-33333-6-3-----|-3-33333-6-3-----

|-----------------|-----------------|-----------------|-----------------|
|-----------------|-----------------|-----------------|-----------------|
|-------------3---|-------------4---|-------------6---|-------------5---|
|-3-33333-6-3-----|-3-33333-6-3-----|-3-33333-6-3-----|-3-33333-6-3-----|

|-----------------|-----------------|-----------------|-----------------
|-----------------|-----------------|-----------------|-----------------
|-----------------|-----------------|-----------------|-----------------
|-2222222222222222|-2222222222222222|-2222222222222222|-2222222222222222

                                    3/
|-----------------|-----------------|-------------|
|-----------------|-----------------|-------------|
|-----------------|-----------------|-------------|
|-2222222222222222|-2222222222222222|-2-2-2-2---2-|

 verse
|-----------------|-----------------|-----------------|-----------------
|-----------------|-----------------|-----------------|-----------------
|-----------------|-----------------|-----------------|-----------------
|-2222222222222222|-2222222222222222|-2222222222222222|-2222222222222222

|-----------------|-----------------|-----------------|-----------------|
|-----------------|-----------------|-----------------|-----------------|
|-----------------|-----------------|-----------------|-----------------|
|-2222222222222222|-2222222222222222|-2222222222222222|-2222222222222222|

 choru
|-----------------|-------------------|-----------------|-------------------
|-----------------|--------------h-p--|-----------------|--------------h-p--
|-7---------------|-------------8108\7|-7---------------|-------------8108\7
|---00007\6---000-|-5---009\8---------|---00007\6---000-|-5---009\8---------
                    1   2   3   4                         1   2   3

|-----------------|-------------------|-----------------|-------------------
|-----------------|--------------h-p--|-----------------|--------------h-p--
|-7---------------|-------------8108\7|-7---------------|-------------8108\7
|---00007\6---000-|-5---009\8---------|---00007\6---000-|-5---009\8---------
                    1   2   3   4                         1   2   3

|-----------------|-----------------
|-----------------|-----------------
|-3---------------|-2---------------
|-----------------|-----------------

 guitar solo
|-----------------|-----------------|-----------------|-----------------
|-----------------|-----------------|-----------------|-----------------
|---------8-------|-6------------pp-|---------8-------|-6------------pp-
|-5-55555---55555-|---555-55555-865-|-5-55555---55555-|---555-55555-865-

|-----------------|-----------------|-----------------|-----------------|
|-----------------|-----------------|-----------------|-----------------|
|---------8-------|-6------------pp-|---------8-------|-6------------pp-|
|-5-55555---55555-|---555-55555-865-|-5-55555---55555-|---555-55555-865-|

|------------------|------------------|------------------|------------------
|------------------|------------------|------------------|------------------
|---------11-------|-9-------------pp-|---------11-------|-9-------------pp-
|-8-88888----88888-|---888-88888-1198-|-8-88888----88888-|---888-88888-1198-
  1   2   3    4     1   2   3   4      1   2   3    4     1   2   3

|------------------|------------------|------------------|------------------
|------------------|------------------|------------------|------------------
|---------11-------|-9-------------pp-|---------11-------|-9-------------pp-
|-8-88888----88888-|---888-88888-1198-|-8-88888----88888-|---888-88888-1198-
  1   2   3    4     1   2   3   4      1   2   3    4     1   2   3

|-----------------|-----------------|
|-----------------|------------h-p--|
|-----------------|-----------8108\7|
|-8---------------|-----------------|

 choru
|-----------------|-------------------|-----------------|-------------------
|-----------------|--------------h-p--|-----------------|--------------h-p--
|-7---------------|-------------8108\7|-7---------------|-------------8108\7
|---00007\6---000-|-5---009\8---------|---00007\6---000-|-5---009\8---------
                    1   2   3   4                         1   2   3

|-----------------|-------------------|-----------------|-------------------
|-----------------|--------------h-p--|-----------------|--------------h-p--
|-7---------------|-------------8108\7|-7---------------|-------------8108\7
|---00007\6---000-|-5---009\8---------|---00007\6---000-|-5---009\8---------
                    1   2   3   4                         1   2   3

|-----------------|-----------------|-----------------|-----------------|
|-----------------|-----------------|-----------------|-----------------|
|-------1-0-----3-|-------1-0-----3-|-------1-0-----3-|-------1-0-----3-|
|-2-0-2-----1-2---|-2-0-2-----1-2---|-2-0-2-----1-2---|-2-0-2-----1-2---|

 guitar solo I
 144 bpm  12/
|-------------------------|-------------------------
|-------------------------|-------------------------
|-------------------------|-------------------------
|-1-0-0-3-0-0-1-0-0-3-0-0-|-1-0-0-3-0-0-5-----6-----

|-------------------------|-------------------------|
|-------------------------|-------------------------|
|-------------------------|-------------------------|
|-1-0-0-3-0-0-1-0-0-3-0-0-|-1-0-0-3-0-0-5-----6-----|

 verse
|-------------------------|-------------------------
|-------------------------|-------------------------
|-------------------------|---------------2-1-0-----
|-1-0-0-3-0-0-1-0-0-3-0-0-|-1-0-0-3-0-0-3-------2-0-

|-------------------------|-------------------------
|-------------------------|-------------------------
|-------------------------|---------------2-1-0-----
|-1-0-0-3-0-0-1-0-0-3-0-0-|-1-0-0-3-0-0-3-------2-0-

|-------------------------|-------------------------
|-------------------------|-------------------------
|-------------------------|---------------2-1-0-----
|-1-0-0-3-0-0-1-0-0-3-0-0-|-1-0-0-3-0-0-3-------2-0-

|-------------------------|-------------------------|
|-------------------------|-------------------------|
|-------------------------|---------------2-1-0-----|
|-1-0-0-3-0-0-1-0-0-3-0-0-|-1-0-0-3-0-0-3-------2-0-|

|-------------------------|-------------------------
|-------------------------|-------------------------
|-------------------------|-3-----------2-----------
|-2-2-2-2-2-2-3-2-2-2-2-2-|---2-2-2-2-2---2-2-0-----

|-------------------------|-------------------------|
|-------------------------|-------------------------|
|-------------------------|-3-----------2-----1-----|
|-2-2-2-2-2-2-3-2-2-2-2-2-|---2-2-2-2-2---2-2-------|

 guitar solo II
|-------------------------|-------------------------
|-------------------------|-------------------------
|-------------------------|-------------------------
|-1-0-0-3-0-0-1-0-0-3-0-0-|-1-0-0-3-0-0-5-----6-----

|-------------------------|-------------------------|
|-------------------------|-------------------------|
|-------------------------|-------------------------|
|-1-0-0-3-0-0-1-0-0-3-0-0-|-1-0-0-3-0-0-5-----6-----|

 verse
|-------------------------|-------------------------
|-------------------------|-------------------------
|-------------------------|---------------2-1-0-----
|-1-0-0-3-0-0-1-0-0-3-0-0-|-1-0-0-3-0-0-3-------2-0-

|-------------------------|-------------------------
|-------------------------|-------------------------
|-------------------------|---------------2-1-0-----
|-1-0-0-3-0-0-1-0-0-3-0-0-|-1-0-0-3-0-0-3-------2-0-

|-------------------------|-------------------------
|-------------------------|-------------------------
|-------------------------|---------------2-1-0-----
|-1-0-0-3-0-0-1-0-0-3-0-0-|-1-0-0-3-0-0-3-------2-0-

|-------------------------|-------------------------|
|-------------------------|-------------------------|
|-------------------------|---------------2-1-0-----|
|-1-0-0-3-0-0-1-0-0-3-0-0-|-1-0-0-3-0-0-3-------2-0-|

 guitar solo I
|-------------------------|-------------------------
|-------------------------|-------------------------
|-------------------------|-3-----------2-----------
|-2-2-2-2-2-2-3-2-2-2-2-2-|---2-2-2-2-2---2-2-0-----

|-------------------------|-------------------------
|-------------------------|-------------------------
|-------------------------|-3-----------2-----1-----
|-2-2-2-2-2-2-3-2-2-2-2-2-|---2-2-2-2-2---2-2-------

|-------------------------|-------------------------
|-------------------------|-------------------------
|-------------------------|-3-----------2-----------
|-2-2-2-2-2-2-3-2-2-2-2-2-|---2-2-2-2-2---2-2-0-----

|-------------------------|-------------------------|
|-------------------------|-------------------------|
|-------------------------|-3-----------2-----1-----|
|-2-2-2-2-2-2-3-2-2-2-2-2-|---2-2-2-2-2---2-2-------|

|-------------------------|-------------------------
|-------------------------|-------------------------
|-------------------------|-------------------------
|-0-0-0-0-0-5\4-----0-0-0-|-3-----0-0-7\6-----0-0-0-

|-------------------------|-------------------------
|-------------------------|-------------------------
|-------------------------|-------------------------
|-0-0-0-0-0-5\4-----0-0-0-|-3-----0-0-7\6-----0-0-0-

 grad. rit
|-------------------------|-------------------------
|-------------------------|-------------------------
|-------------------------|-------------------------
|-0-0-0-0-5---4-----0-0-0-|-3-----0-0-7-6-----0-0-0-

|-------------------------|-------------------------
|-------------------------|-------------------------
|-------------------------|-------------------------
|-0-0-0-0-5---4-----0-0-0-|-3-----0-7-7-6-----0-0-0-

|-------------------------|-------------------------|
|-------------------------|-------------------------|
|-------------------------|-------------------------|
|-0-0-0-0-5---4-----0-0-0-|-3-----0-7---6-----------|

Almost there ...

Sign in to get your own page with links to favourite songs and more. You are just one click away...

Login with Facebook Login with Google