Log in

One click and you are in

Login with Facebook Login with Google

Why sign up and log in

Guitar Tabs Explorer
Slayer guitar tabs for Aggressive perfector

Guitar tabs

All you need it's a lot of speed...


RIFF 1 INTRO x1

|---------------------------------|--------------------------------|
|---------------------------------|--------------------------------|
|---------------------------------|--------------------------------|
|---------------------------------|--------------------------------|
|-5555555555555555----------------|-444444444444444----------------|
|-3333333333333333----------------|-222222222222222----------------|

|---------------------------------------------|
|---------------------------------------------|
|---------------------------------------------|
|---------------------------------------------|
|-4--4--4--4--2222222222222222----------------|
|-2--2--2--2--0000000000000000----------------|
   x  x  x  x


 LEAD

|-121212121212121212121212121212121212121212121212121212/20b---|
|--------------------------------------------------------------|
|--------------------------------------------------------------|
|--------------------------------------------------------------|
|--------------------------------------------------------------|
|--------------------------------------------------------------|

 RIFF 2 VERSE x8

|-------------------------------------|
|-------------------------------------|
|-------------------------------------|
|-----12\11-----12\11-----12\11--7--9-|
|-----10\\9-----10\\9-----10\\9--5--7-|
|-0-0-------0-0-------0-0-------------|
  . .       . .       . .


 RIFF 3 CHORUS x2

|-----------------------------|-----------------------------|
|-----------------------------|-----------------------------|
|-----------------------------|----------------------5-4----|
|-4------4--------------------|-4------4------5------3-2-5--|
|-2-2222-2-2222-3------3------|-2-2222-2-2222-3-3333-----3--|
|---------------1-1111-1-1111-|-----------------------------|
    ....   ....   ....   ....     ....   ....   ....


 RIFF 2 VERSE x8

 RIFF 3 CHORUS x2


 RIFF 4 INTERLUDE x1

|-------------------------------------|-------------------------------------|
|-------------------------------------|-------------------------------------|
|-------------------------------------|-------------------------------------|
|-------------------------------------|-------------------------------------|
|-7--------6-------10--------9--------|-7--------6-------10--------9---10---|
|-5--------4--------8--------7--------|-5--------4--------8--------7----8---|



 RIFF 5 INTERLUDE x8

|----------------|
|----------------|
|----------------|
|----------------|
|-0-2--0-2-------|
|----------3-2-0-|
           . . .


 SOLO 1

|-0-3-2-0-3-2-0-3-2-0-5-3-0-5-3-0-5-3-0-7-5-0-7-5-0-7-5-0-9-7-0-9-7-0-9-7-|
|-------------------------------------------------------------------------|
|-------------------------------------------------------------------------|
|-------------------------------------------------------------------------|
|-------------------------------------------------------------------------|
|-------------------------------------------------------------------------|


|-15-16-18-16-15----------------------------------------------|
|----------------18-17-15-18-17-15----------------------------|
|----------------------------------18-16-15-16b^^--18b^^\\----|
|-------------------------------------------------------------|
|-------------------------------------------------------------|
|-------------------------------------------------------------|


 SOLO 2

|-19fb^^----19fb^^----21fb^^----|
|-------------------------------|
|-------------------------------|
|-------------------------------|
|-------------------------------|
|-------------------------------|


|-18-19-21-19-18----------------------------------------------------|
|----------------21-20-18-21-20-18----------------18-20/21fb^^^r----|
|----------------------------------21-19-18-19-21-------------------|
|-------------------------------------------------------------------|
|-------------------------------------------------------------------|
|-------------------------------------------------------------------|


 SOLO 3

|-19-12h15-19-12h15-19-12h15-19-12h15-19-12h15-19-12h15-19-12h15-19-12h15-|
|-------------------------------------------------------------------------|
|-------------------------------------------------------------------------|
|-------------------------------------------------------------------------|
|-------------------------------------------------------------------------|
|-------------------------------------------------------------------------|
  T         T        T        T        T        T        T        T

|-19-12h15-19-12h15-19-12h15-19-12h15------------|
|-------------------------------------20-15\\\---|
|------------------------------------------------|
|------------------------------------------------|
|------------------------------------------------|
|------------------------------------------------|
   T        T        T        T        T

|-------------------|-14-17-14-15-14-17-14-15-16-17-18-19-20-21-22-23-24-|
|----17fb^^^^^^^^r--|----------------------------------------------------|
|-18----------------|----------------------------------------------------|
|-------------------|----------------------------------------------------|
|-------------------|----------------------------------------------------|
|-------------------|----------------------------------------------------|


 SOLO 4

|-18-21-18-22-21-18-21-18-22-21-18-18-21-18-22-21-18-21-|
|-------------------------------------------------------|
|-------------------------------------------------------|
|-------------------------------------------------------|
|-------------------------------------------------------|
|-------------------------------------------------------|


|-18-22-21-18-18-21-18-22-21-18-21-18-22-21-18-21-|
|-------------------------------------------------|
|-------------------------------------------------|
|-------------------------------------------------|
|-------------------------------------------------|
|-------------------------------------------------|


|-22fb2222222222222222r---------------|
|------------------------22fb^^r\\\\--|
|-------------------------------------|
|-------------------------------------|
|-------------------------------------|
|-------------------------------------|



 RIFF 6 x4 UNDER SOLOS

|-------------------------------------|
|-------------------------------------|
|-------------------------------------|
|-4--------2--------5--------4--------|
|-22222222-00000000-33333333-22222222-|
|-------------------------------------|
   .......  .......  .......  .......


 RIFF 3 CHORUS x2


 RIFF 7 OUTRO x1

|-------------------------------|-------------------------------|
|-------------------------------|-------------------------------|
|-------------------------------|-------------------------------|
|-9------9------9---------------|-9------9------9---------------|
|-7------7------7---------------|-7------7------7---------------|
|---0000---0000---000000-000000-|---0000---0000---000000-000000-|
    ....   ....   ...... ......     ....   ....   ...... ......


|-------------------------------|---------------|
|-------------------------------|---------------|
|-------------------------------|---------------|
|-9------9------9---------------|-9------9------|
|-7------7------7---------------|-7------7------|
|---0000---0000---000000-000000-|---0000---0000-|
    ....   ....   ...... ......     ....   ....


 RIFF 8 OUTRO x4

|-------------------------------|
|-------------------------------|
|-------------------------------|
|-4------5----------------------|
|-222222-333333-2---------------|
|---------------0-000000-000000-|
   .....  ..... . ...... ......


 RIFF 8A OUTRO x3

|-------------------------------|
|-------------------------------|
|-------------------------------|
|-4-4-4--5-5-5------------------|
|-2-2-2--3-3-3--2---------------|
|---------------0-000000-000000-|
                . ...... ......


 FILL 1 END

|--------------------------------|
|--------------------------------|
|--------------------------------|
|-4-4-4--5-5-5-5-5-5-5-5-5--9----|
|-2-2-2--3-3-3-3-3-3-3-3-3--7----|
|--------------------------------|
                             x

Almost there ...

Sign in to get your own page with links to favourite songs and more. You are just one click away...

Login with Facebook Login with Google