Log in

One click and you are in

Login with Facebook Login with Google

Why sign up and log in

Guitar Tabs Explorer
Slayer bass tabs for Aggressive perfector

Bass tabs

AGGRESSIVE PERFECTOR - Slayer

Tabbed by Stefan Hofmann

Verse Riff

|---------------------------------------------------|
|---------------------------------------------------|
|--------10p9-----------10p9-----------10p9---5---7-|
|0-0-0----------0-0-0----------0-0-0----------------|


Chorus Riff

|-----------------------------------------------------|
|-----------------------------------------------------|
|2---0--2------8---6--8---0--2---0--2--3------8--7--5-|
|-----------------------------------------------------|


Riff A

|----------------------------------------------------------|
|----------------------------------------------------------|
|--------------3------2--------------------3------2------3-|
|5------4--------------------5------4----------------------|


Riff B

|----------------------|
|----------------------|
|2p0h2---0--2----------|
|--------------3--2--3-|


Solo Riff

|--------------------------------
|--------------------------------
|--------------------------------
|5-5-5-5-5-5-5-5-4-4-4-4-4-4-4-4-

--------------------------------|
--------------------------------|
3-3-3-3-3-3-3-3-2-2-2-2-2-2-2-2-|
--------------------------------|


Riff C

|----------------------------------|
|----------------------------------|
|7-------7-------7-----------------|
|--0-0-0---0-0-0---0-0-0-0-0-0-0-0-|


Riff D

|-------------------------------------------------|
|-------------------------------------------------|
|2--2----2--3--3----3-----------------------------|
|----------------------0--0---0-0-0---0-0---0-0-0-|


Riff D1

|----------------------------------------------|
|----------------------------------------------|
|2--2--2--3--3--3------------------------------|
|------------------0--0---0-0-0---0--0---0-0-0-|


End

|--------------------------------------|
|--------------------------------------|
|2--2--2--3--3--3--3--3--3--3--3--3----|
|------------------------------------2-|


For questions, comments etc. send e-mail to:

Almost there ...

Sign in to get your own page with links to favourite songs and more. You are just one click away...

Login with Facebook Login with Google