Log in

One click and you are in

Login with Facebook Login with Google

Why sign up and log in

Guitar Tabs Explorer
Slayer bass tabs for 213

Bass tabs with lyrics

SONG:   213
ALBUM:  DIVINE INTERVENTION
ARTIST: SLAYER
TABBED BY: GARETH RICHARDS
EMAIL:     jackslackofsurprise@hotmail.com

Down tune the whole bass half a step (Eb Ab Db Gb) for this one, however
cos i'm reasonably lazy i'm not going to write all the flats after the
string letters.
i'm going to tab this for a four string as this is dark and heavy enough
without trying to be flash with all that low B string business.
There is a lot of detail in this one, i was up til late working everthing
out. Be patient with some of the fingering, those slayer lads have been
playing like lunatics for over twenty years so this is easy for them!
w= whole note
h= half note
q= quater note
e= eighth
s= sixteenth



 4/4
 intro
G--------|---------|---------|---------|---------|---------|---------|
D--------|---------|---------|---------|---------|---------|---------|
A--------|---------|-------/-|-9-----9-|-8-----8-|-7-----7-|-6-----6-|
E--------|---------|-3-------|---------|---------|---------|---------|
                     h.    q   h.    q   h.    q   h.    q   h.    q

G--------|---------|--------||
D--------|---------|--------||
A-5------|-6-----6-|-5------||
E--------|---------|--------||
  w        h.    q   w

  x 4
G|---------------|--------------||------------|------------||
D|*--------------|-------------*||*-----------|-----------*||
A|*--------------|-------------*||*-6----5----|-----------*||
E|--3-------3333-|-2------------||------------|-7----6-----||
    h.      ssss   w                h    h      h    h

G---------|---------||------------|------------||----------|-------------||
D---------|---------||*-----------|-----------*||*---------|------------*||
A---------|---------||*-----------|-----------*||*------1--|------------*||
E-0-------|-(0)-----||--0----1----|-0----3--1--||--0-------|-0----3--1---||
  W         (W)         h    h      h    q  q      h    h    h    q  q


 4/4 slower                             6/8
G--------------------------------------|----------------------------|
D*-------------------------------------|----------------------------|
A*------4-4--3-3---3--3---4-4--4-4-3-3-|---3-----4---------------4--|
E---2-2----------2------2--------------|-2-----2-----3-2-0--2-3-----|
    s s s s  s s s s  s s s s  s s s s   s e   s e   s s s  s s  e
                                                     ( 3 )
 4/4                                  5/8
G------------------------------------|-------------------------------||
D------------------------------------|------------------------------*||
A-3-3---3--3---4-4--4-4-3-3----3-----|-4----------------------------*||
E-----2------2---------------2-----2-|-----3-2-0--2-3---3-2-0--1-3---||
  s s s s  s s s s  s s s s  s e   s   e   s s s  s s   s s s  s s
                                           ( 3 )        ( 3 )


   4/4 verse x 4
G||-----------------------------|---------------------------------|
D||-----------------------------|---------------------------------|
A||-----------------------------|---------------------------------|
E||-1--0--0--0--0--0----0-0-0-0-|-1--0---0-0-0-0---0--1---1-1-1-1-|
    e  e  e  e  e  e    s s s s   e  e   s s s s   e  e   s s s s

G-----------------------------|-----------------------||
D-----------------------------|----------------5--4--*||
A-----------------------------|-----------5--7-------*||
E-1--0--0--0--0--0----0-0-0-0-|-1--0--0---------------||
  e  e  e  e  e  e    s s s s   e  e  e  e  e  e  q


 4/4 chorus
G-----------------|----------------------|---------------|
D-----------------|----------------------|---------------|
A---------5----4--|------3---------------|-------5----4--|
E-2--2------------|-5---------4--4--4--4-|-4--4----------|
  e  e    q.   q.   q    q    e  e  e  e   e  e  q.   q.

G-----------------------------|-----------------|----------------------|
D-----------------------------|-----------------|----------------------|
A------3----------------------|---------5----4--|------3---------------|
E-5---------3--2--0---3--2--0-|-0--2------------|-5---------4--4--4--4-|
  q    q    e  e  e   e  e  e   e  e    q.   q.   q    q    e  e  e  e
            (  3  )   (  3  )


 (1st time - - - 5/4 - - - - - - - - - - - - - - - )
G---------------|-----------------------------------|| repeat

verse/chorus
D---------------|-----------------------------------|| with 2nd time bars
A-------5----4--|------3----------------------------|| in the chorus
E-4--4----------|-5---------3--2--0---3--2--0--1--3-||
  e  e  q.   q.   q    q    e  e  e   e  e  e  e  e
                            (  3  )   (  3  )

(2nd time- - - - - - - - - - - - - - - - - - - - - - -
 5/4                    4/4
G----------------------|------------------------------|
D----------------------|------------------------------|
A-------5----4---------|------------------------------|
E-4--4------------5----|-3--2--0--2--3--2--5--3--2--0-|
  e  e  q.   q.   q      e  e  e  e  e  e  e  e  e  e
                         (  3  )              (  3  )

 - - - - - - - - - - - - - - - - - -)
 5/4
G-----------------------------------||
D-----------------------------------||
A-----------------------------------||
E-3--2--0--2--3--2--5--3--2--0------||
  e  e  e  e  e  e  e  e  e  e  rest
  (  3  )              (  3  )


  4/4 interlude/pre solo
G|---------------|------------------------|--------------|
D|*--------------|------------------------|--------------|
A|*-2----1-------|------1-----1-----------|-2----1-------|
E|------------2--|-3-------3-----3--2--3--|-----------2--|
    q.   q.   q    q    e  e  e  e  e  e    q.   q.   q

 (1st time- - - - - - - - - - -)  (2nd time- - - - - - - - - - )
G-------------------------------||------------------------------||
D------------------------------*||------------------------------||
A------------------------------*||------------------------------||
E-3----3--2--0--3--2--0--0--2---||-3----3--2--0--3--2--0--0--3--||
  q    e  e  e  e  e  e  e  e      q    e  e  e  e  e  e  e  e
       (  3  )  (  3  )                 (  3  )  (  3  )


  4/4 solo
G|------------------------------|---------|
D|*-----------------------------|----%----|
A|*-----------------------------|---------|
E|--1--0--0--0--0--0----0-0-0-0-|---------|
    e  e  e  e  e  e    s s s s
G------------------------------------|-------------------------------||
D------------------------------------|------------------------------*||
A------------------------------------|------------------------------*||
E-1--0----0-0-0-0----3--1----1-1-1-1-|-1--0--0--0--0--0----0-0-0-0---||
  e  e    s s s s    e  e    s s s s   e  e  e  e  e  e    s s s s

G|------------------------------|---|------------------------------------|
D|*-----------------------------|-%-|------------------------------------|
A|*-----------------------------|---|------------------------------------|
E|--3--2--2--2--2--2----2-2-2-2-|---|-3--2----2-2-2-2----5--3----3-3-3-3-|
    e  e  e  e  e  e    s s s s       e  e    s s s s    e  e    s s s s


 (1st time- - - - - - - - - - )  (2nd time - - - - - - -)
G------------------------------||-----------------------||
D-----------------------------*||-----------------------||
A-----------------------------*||-----------------------||
E-3--2--2--2--2--2----2-2-2-2--||-5---3---3---3---1---1-||
  e  e  e  e  e  e    s s s s     q   q   q   q   q   q
                                  (   3   )   (   3   )

repeat interlude/pre solo riff through once with 1st time bar then again
with:


  4/4  x 4
G|-----------------------------|-----------------------------||
D|*----------------------------|----------------------------*||
A|*----------------------------|----------------------------*||
E|--3--2--0--2--3--0--5--3--2--|-3--2--0--2--3--0--3--2--1---||
    e  e  e  e  e  e  e  e  e    e  e  e  e  e  e  e  e  e
    (  3  )                      (  3  )

 4/4 slower                             6/8
G--------------------------------------|----------------------------|
D*-------------------------------------|----------------------------|
A*------4-4--3-3---3--3---4-4--4-4-3-3-|---3-----4---------------4--|
E---2-2----------2------2--------------|-2-----2-----3-2-0--2-3-----|
    s s s s  s s s s  s s s s  s s s s   s e   s e   s s s  s s  e
                                                     ( 3 )


                                      5/8 1st time - - - - - |
 4/4                                  7/8 2nd time - - - - - |- - -  - -
|
G------------------------------------|-----------------------|-----------||
D------------------------------------|-----------------------|-----------||
A-3-3---3--3---4-4--4-4-3-3----3-----|-4---------------------|-----------||
E-----2------2---------------2-----2-|----3-2-0-2-3-3-2-0-2-3|-3-2-0-2-3-||
  s s s s  s s s s  s s s s  s e   s   e  s s s s s s s s s s s s s s s
                                          ( 3 )     ( 3 )     ( 3 )

the last bar looks a little confusing and to be honest i can't remember
if it's right but give it a go and see what happens. have fun it's a
really nice song to play.

________________________________________________________________________________

Other versions of 213

213 (Ver. 2)Bass tabs

Almost there ...

Sign in to get your own page with links to favourite songs and more. You are just one click away...

Login with Facebook Login with Google