Log in

One click and you are in

Login with Facebook Login with Google

Why sign up and log in

Guitar Tabs Explorer
Skillet bass tabs for Those nights

Bass tabs

Here it is. This is the actual thing for a 5 string written in a way you can understand. Enjoy.

-Cameron


Intro 2x
G|------------------------|------------------------|
D|------------------------|------------------------|
A|--3-3-------------------|--3-3-------------------|
E|----------3-3-----0-0-1-|----------3-3-----0-0-1-|
B|------------------------|------------------------|

Verso 1x
|---------------------------------------------------------------|
|---------------------------------------------------------------|
|---------------------------------3-3-3-3-3-3-3-----------------|
|-0/5-5-5-5-5-5-5-1-1-1-1-1-1-1-1---------------3-3-3-3-3-1-1-1-|
|---------------------------------------------------------------|

|-------------------------------------------------------------|
|-------------------------------------------------------------|
|-------------------------------3-3-3-3-3-3-3-----------------|
|-5-5-5-5-5-5-5-1-1-1-1-1-1-1-1---------------3-3-3-3-3-1-1-1-|
|-------------------------------------------------------------|

|---------------------------------------------------|
|---------------------------------------------------|
|---------------------------------------------------|
|---------------------------------1-1-1-1-1-1-1-1-1-|
|-3-3-3-3-3-3-3-3-3-3-3-3-3-3-3-3-------------------|


Chorus 2x
|--------------------------------------------------------|
|--------------------------------------------------------|
|-3-3-3-3------------------------------------------------|
|---------3-3-3-3-1-1-1-1-1-1-1-1-5-5-5-5-0-0-0-0-1-1-1-1|
|--------------------------------------------------------|

|--------------------------------------------------------|
|--------------------------------------------------------|
|-3-3-3-3------------------------------------------------|
|---------3-3-3-3-1-1-1-1-1-1-1-1-5-5-5-5-0-0-0-0-1-1-1-1|
|--------------------------------------------------------|



Intro 2x
|------------------------|------------------------|
|------------------------|------------------------|
|--3-3-------------------|--3-3-------------------|
|----------3-3-----0-0-1-|----------3-3-----0-0-1-|
|-------------------------------------------------|


Verse 1x
|---------------------------------------------------------------|
|---------------------------------------------------------------|
|---------------------------------3-3-3-3-3-3-3-----------------|
|-0/5-5-5-5-5-5-5-1-1-1-1-1-1-1-1---------------3-3-3-3-3-1-1-1-|
|---------------------------------------------------------------|

|-------------------------------------------------------------|
|-------------------------------------------------------------|
|-------------------------------3-3-3-3-3-3-3-----------------|
|-5-5-5-5-5-5-5-1-1-1-1-1-1-1-1---------------3-3-3-3-3-1-1-1-|
|-------------------------------------------------------------|

|---------------------------------------------------|
|---------------------------------------------------|
|---------------------------------------------------|
|---------------------------------3-3-3-3-3-3-3-3-3-|
|-3-3-3-3-3-3-3-3-3-3-3-3-3-3-3-3-------------------|


Chorus 2x
|--------------------------------------------------------|
|--------------------------------------------------------|
|-3-3-3-3------------------------------------------------|
|---------3-3-3-3-1-1-1-1-1-1-1-1-5-5-5-5-0-0-0-0-1-1--11|
|--------------------------------------------------------|

|--------------------------------------------------------|
|--------------------------------------------------------|
|-3-3-3-3------------------------------------------------|
|---------3-3-3-3-1-1-1-1-1-1-1-1-5-5-5-5-0-0-0-0-1-1--11|
|--------------------------------------------------------|





Intro 4x
|------------------------|------------------------|
|------------------------|------------------------|
|--3-3-------------------|--3-3-------------------|
|----------3-3-----0-0-1-|----------3-3-----0-0-1-|
|------------------------|------------------------|

|------------------------|------------------------|
|------------------------|------------------------|
|--3-3-------------------|--3-3-------------------|
|----------3-3-----0-0-1-|----------3-3-----0-0-1-|
|------------------------|------------------------|

Short Pause


Intro 1x
|------------------------|
|------------------------|
|--3-3-------------------|
|----------3-3-----0-0-1-|
|------------------------|

|--------------------------------------------------------|
|--------------------------------------------------------|
|-3-3-3-3------------------------------------------------|Play 5 times
|---------3-3-3-3-1-1-1-1-1-1-1-1-5-5-5-5-0-0-0-0-1-1--11|
|--------------------------------------------------------|

|------------|
|------------|
|------------|
|------------|

Almost there ...

Sign in to get your own page with links to favourite songs and more. You are just one click away...

Login with Facebook Login with Google