Log in

One click and you are in

Login with Facebook Login with Google

Why sign up and log in

Guitar Tabs Explorer
Skid Row bass tabs for I remember you

Bass tabs with lyrics

Standard tuning (EADG)

LEGEND:
r = rest
h = hammer on
p = pull off
/ = slide up
\ = slide down
X = muted strike
^ = 1/4 bend
(rit.) = ritardando (appears above bar)

INTRO (x2):

G |---------------------------------|---------------------------------|
D |---------------------------------|---------------------------------|
A |---------------------------------|-3---------------------------3-0-|
E |-r-------------------------------|---------------------------------|
  1  &  2  &  3  &  4  &   1  &  2  &  3  &  4  &

G |---------------------------------|---------------------------------|
D |---------------------------------|---------------------------------|
A |---------------------------------|-3---------------------------3-0-|
E |-3---------------------------0h3-|---------------------------------|
  1  &  2  &  3  &  4  &   1  &  2  &  3  &  4  &


VERSE 1:

G |---------------------------------|---------------------------------|
D |---------------------------------|---------------------------------|
A |---------------------------------|-3---------------------------3-0-|
E |-3---------------------------0h3-|---------------------------------|
  1  &  2  &  3  &  4  &   1  &  2  &  3  &  4  &

G |---------------------------------|---------------------------------|
D |---------------------------------|---------------------------------|
A |---------------------------------|-3---------------------------3-0-|
E |-3---------------------------0h3-|---------------------------------|
  1  &  2  &  3  &  4  &   1  &  2  &  3  &  4  &

G |---------------------------------|---------------------------------|
D |---------------------------------|---------------------------------|
A |---------------------------------|-3-----------------------3-2-3-/-|
E |-3---------------------------0h3-|---------------------0-----------|
  1  &  2  &  3  &  4  &   1  &  2  &  3  &  4  &

G |---------------------------------|---------------------------------|
D |---------------------------------|---------------------------------|
A |-5-----0-5-r-5-------0---5---0-5-|-3-------3-r-3-----------3-----0-|
E |---------------------------------|---------------------------------|
  1  &  2  &  3  &  4  &   1  &  2  &  3  &  4  &


VERSE 2:

G |---------------------------------|---------------------------------|
D |---------------------------------|---------------------------------|
A |---------------------------------|-3-----3-r---3---------------3-0-|
E |-3---------------------------0h3-|---------------------------------|
  1  &  2  &  3  &  4  &   1  &  2  &  3  &  4  &

G |---------------------------------|---------------------------------|
D |---------------------------------|---------------------------------|
A |---------------------------------|-3-----3-r---3---------------3-0-|
E |-3---------------------------0h3-|---------------------------------|
  1  &  2  &  3  &  4  &   1  &  2  &  3  &  4  &

G |---------------------------------|---------------------------------|
D |---------------------------------|---------------------------------|
A |---------------------------------|-3-----3-r---3---3---2---3-2-3-/-|
E |-3---------------------------0h3-|---------------------------------|
  1  &  2  &  3  &  4  &   1  &  2  &  3  &  4  &


PRE-CHORUS:

G |---------------------------------|---------------------------------|
D |---------------------------------|---------------------------------|
A |-5----0--5-r-5-------0---5---0-5-|-3-----0-3-r-3-------0---3---0-3-|
E |---------------------------------|---------------------------------|
  1  &  2  &  3  &  4  &   1  &  2  &  3  &  4  &

G |---------------------------------|---------------------------------|
D |---------------------------------|---------------------------------|
A |-5-----0-5-r-5-------0---5---0-5-|-3-----0-3-----0-3-r-3-r-3h5-3-0-|
E |---------------------------------|---------------------------------|
  1  &  2  &  3  &  4  &   1  &  2  &  3  &  4  &


CHORUS 1:

G |---------------------------------|---------------------------------|
D |---------------------------------|---------------------------------|
A |---------------------------------|-5-------X---5-r-5-----\-3-------|
E |-3-------X---3-------0---3---0-3-|---------------------------------|
  1  &  2  &  3  &  4  &   1  &  2  &  3  &  4  &

G |---------------------------------|---------------------------------|
D |---------------------------------|---------------------------------|
A |---------------------------------|-3-------X---3-r-3h5-3---2h3-2-0-|
E |-0-------X---0-----------0---0-3-|---------------------------------|
  1  &  2  &  3  &  4  &   1  &  2  &  3  &  4  &

G |---------------------------------|---------------------------------|
D |---------------------------------|---------------------------------|
A |---------------------------------|-5-------X---5-r-5-----\-3-------|
E |-3-------X---3-------0---3---0-3-|---------------------------------|
  1  &  2  &  3  &  4  &   1  &  2  &  3  &  4  &

G |---------------------------------|---------------------------------|
D |---------------------------------|---------------------------------|
A |---------------------------------|-3-----------------------3---0---|
E |-0-------X---0-----------0---0-3-|---------------------------------|
  1  &  2  &  3  &  4  &   1  &  2  &  3  &  4  &


PRE-VERSE:

G |---------------------------------|---------------------------------|
D |---------------------------------|---------------------------------|
A |---------------------------------|-3-------X---3-------0---3---0-3-|
E |-3-------X---3-------0---3---0h3-|---------------------------------|
  1  &  2  &  3  &  4  &   1  &  2  &  3  &  4  &

G |---------------------------------|---------------------------------|
D |---------------------------------|---------------------------------|
A |---------------------------------|-3-----3-r---3---------------3-0-|
E |-3-------X---3-------0---3---0h3-|---------------------------------|
  1  &  2  &  3  &  4  &   1  &  2  &  3  &  4  &


VERSE 3:

G |---------------------------------|---------------------------------|
D |---------------------------------|---------------------------------|
A |---------------------------------|-3-----3-r---3---------------3-0-|
E |-3-----3-r---3---------------0h3-|---------------------------------|
  1  &  2  &  3  &  4  &   1  &  2  &  3  &  4  &

G |---------------------------------|---------------------------------|
D |---------------------------------|---------------------------------|
A |---------------------------------|-3-----3-r---3---------------3-0-|
E |-3-----3-r---3---------------0h3-|---------------------------------|
  1  &  2  &  3  &  4  &   1  &  2  &  3  &  4  &

G |---------------------------------|---------------------------------|
D |---------------------------------|---------------------------------|
A |---------------------------------|-3-----3-r---3-r-3---2---3-2-3-/-|
E |-3-----3-r---3---------------0h3-|---------------------------------|
  1  &  2  &  3  &  4  &   1  &  2  &  3  &  4  &


PRE-CHORUS:

G |---------------------------------|---------------------------------|
D |---------------------------------|---------------------------------|
A |-5-----0-5-r-5-------0---5---0-5-|-3-----0-3-r-3-------0---3---0-3-|
E |---------------------------------|---------------------------------|
  1  &  2  &  3  &  4  &   1  &  2  &  3  &  4  &

G |---------------------------------|---------------------------------|
D |---------------------------------|---------------------------------|
A |-5-----0-5-r-5-------0---5---0-5-|-3-----0-3-----0-3-r-3-r-3h5-3-0-|
E |---------------------------------|---------------------------------|
  1  &  2  &  3  &  4  &   1  &  2  &  3  &  4  &


CHORUS 2:

G |---------------------------------|---------------------------------|
D |---------------------------------|---------------------------------|
A |---------------------------------|-5-------X---5-r-5-----\-3-------|
E |-3-------X---3-------0---3---0-3-|---------------------------------|
  1  &  2  &  3  &  4  &   1  &  2  &  3  &  4  &

G |---------------------------------|---------------------------------|
D |---------------------------------|---------------------------------|
A |---------------------------------|-3-------X---3-r-3h5-3---2h3-2-0-|
E |-0-------X---0-----------0---0-3-|---------------------------------|
  1  &  2  &  3  &  4  &   1  &  2  &  3  &  4  &

G |---------------------------------|---------------------------------|
D |---------------------------------|---------------------------------|
A |---------------------------------|-5-------X---5-r-5-------3-------|
E |-3-------X---3-------0---3---0-3-|---------------------------------|
  1  &  2  &  3  &  4  &   1  &  2  &  3  &  4  &

G |---------------------------------|---------------------------------|
D |---------------------------------|---------------------------------|
A |---------------------------------|-3-------------------------------|
E |-0-------X---0-----------0---0h3-|---------------------0-0-12--\---|
  1  &  2  &  3  &  4  &   1  &  2  &  3  &  4  &

G |---------------------------------|---------------------------------|
D |------------/5------/5---5---5---|---------5/7-5-------5---5-3-----|
A |---------------------------------|-----------------------------5-3-|
E |-3-------r-----------------------|-3-3-3-3-------------------------|
  1  &  2  &  3  &  4  &   1  &  2  &  3  &  4  &


BRIDGE:

G |---------------------------------|---------------------------------|
D |---------------------------------|---------------------------------|
A |-0-------0-----0-3---2---0-------|-----------------3---2---0-------|
E |-----------------------------3^--|-0-------0-----0-------------3^--|
  1  &  2  &  3  &  4  &   1  &  2  &  3  &  4  &

G |---------------------------------|------------------------------------|---------------------------------|
D |---------------------------------|-12-0-0-10-0-0-9-0-0-10-0-0-9-0-----|---------------------------------|
A |-0-------0-----0-3---2---0---3-/-|--------------------------------9-\-|-5-5-5-5-5-5-5-5-5-5-5-5-5-3-----|
E |---------------------------------|------------------------------------|-----------------------------5---|
  1  &  2  &  3  &  4  &   1  &  2  &  3  &  4  &   1  &  2  &  3  &  4  &


GUITAR SOLO:

G |---------------------------------|---------------------------------|
D |---------------------------------|---------------------------------|
A |---------------------------------|-3-------X---3-r-3-----------3-0-|
E |-3-------X---3-------0---3---0h3-|---------------------------------|
  1  &  2  &  3  &  4  &   1  &  2  &  3  &  4  &

G |---------------------------------|---------------------------------|
D |---------------------------------|---------------------------------|
A |---------------------------------|-3-------X---3-r-3---3---3---3-0-|
E |-3-------X---3-r-3-----------0h3-|---------------------------------|
  1  &  2  &  3  &  4  &   1  &  2  &  3  &  4  &

G |---------------------------------|---------------------------------|
D |---------------------------------|---------------------------------|
A |---------------------------------|-3-------X---3-r-3---2---3-2-3-/-|
E |-3-------X---3-r-3-----------0h3-|---------------------------------|
  1  &  2  &  3  &  4  &   1  &  2  &  3  &  4  &

G |---------------------------------|---------------------------------|
D |---------------------------------|---------------------------------|
A |-5-----0-5-r-5-------0---5---0-5-|-3-----0-3-r-3-------0---3---0-3-|
E |---------------------------------|---------------------------------|
  1  &  2  &  3  &  4  &   1  &  2  &  3  &  4  &

G |---------------------------------|---------------------------------|
D |---------------------------------|---------------------------------|
A |-5-----0-5-r-5-------0---5---0-5-|-3-r-3---r---3---------------3-0-|
E |---------------------------------|---------------------------------|
  1  &  2  &  3  &  4  &   1  &  2  &  3  &  4  &


PRE-VERSE:

G |---------------------------------|---------------------------------|
D |---------------------------------|---------------------------------|
A |---------------------------------|-3---------------------------3-0-|
E |-3---------------------------0h3-|---------------------------------|
  1  &  2  &  3  &  4  &   1  &  2  &  3  &  4  &

G |---------------------------------|---------------------------------|
D |---------------------------------|---------------------------------|
A |---------------------------------|-3---------------------------3-0-|
E |-3---------------------------0h3-|---------------------------------|
  1  &  2  &  3  &  4  &   1  &  2  &  3  &  4  &


VERSE 4:

G |---------------------------------|---------------------------------|
D |---------------------------------|---------------------------------|
A |---------------------------------|---------------------------------|
E |-3---------------------------\---|-r-------------------------------|
  1  &  2  &  3  &  4  &   1  &  2  &  3  &  4  &

G |---------------------------------|---------------------------------|
D |---------------------------------|---------------------------------|
A |---------------------------------|---------------------------------|
E |-r-------------------------------|-r-------------------------------|
  1  &  2  &  3  &  4  &   1  &  2  &  3  &  4  &

G |---------------------------------|---------------------------------|
D |---------------------------------|---------------------------------|
A |---------------------------------|---------------------2---3-2-3-/-|
E |-r-------------------------------|-r-------------------------------|
  1  &  2  &  3  &  4  &   1  &  2  &  3  &  4  &


PRE-CHORUS:

G |-------------------------7-------|---------------------5---7-5-----|
D |---------------------7h9---9-7-\-|-----------------5/7---7-----7-\-|
A |-5-----0-5-r-5-------------------|-3-----0-3-r-3-------------------|
E |---------------------------------|---------------------------------|
  1  &  2  &  3  &  4  &   1  &  2  &  3  &  4  &

G |---------------------7-------r---|---------------------------------|
D |-----------------7h9-------------|---------------------------------|
A |-5-----0-5-r-5-------------------|-3-------------------------------|
E |---------------------------------|---------------------0-0-12--\---|
  1  &  2  &  3  &  4  &   1  &  2  &  3  &  4  &


CHORUS 3:

G |---------------------------------|---------------------------------|
D |---------------------------------|---------------------------------|
A |---------------------------------|-5-------X---5-r-5-----\-3-------|
E |-3-------X---3---------------0-3-|---------------------------------|
  1  &  2  &  3  &  4  &   1  &  2  &  3  &  4  &

G |---------------------------------|---------------------------------|
D |---------------------------------|---------------------------------|
A |---------------------------------|-3-------X---3-r-3h5-3---2h3-2-0-|
E |-0-------X---0-----------0---0h3-|---------------------------------|
  1  &  2  &  3  &  4  &   1  &  2  &  3  &  4  &

G |---------------------------------|---------------------------------|
D |---------------------------------|---------------------------------|
A |---------------------------------|-5-------X---5-r-5-----\-3-------|
E |-3-------X---3-------0---3---0-3-|---------------------------------|
  1  &  2  &  3  &  4  &   1  &  2  &  3  &  4  &

G |---------------------------------|---------------------------------|
D |---------------------------------|---------------------------------|
A |---------------------------------|-3-------X---3-r-3h5-3---2h3-2-0-|
E |-0-------X---0-------0---0---0-3-|---------------------------------|
  1  &  2  &  3  &  4  &   1  &  2  &  3  &  4  &


CHORUS 4:

G |---------------------------------|---------------------------------|
D |---------------------------------|---------------------------------|
A |---------------------------------|-5-------X---5-r-5-----\-3-------|
E |-3-------X---3-------0---3---0-3-|---------------------------------|
  1  &  2  &  3  &  4  &   1  &  2  &  3  &  4  &

G |---------------------------------|---------------------------------|
D |---------------------------------|---------------------------------|
A |---------------------------------|-3-------X---3-r-3h5-3---2h3-2-0-|
E |-0-------X---0-----------0---0-3-|---------------------------------|
  1  &  2  &  3  &  4  &   1  &  2  &  3  &  4  &

G |---------------------------------|---------------------------------|
D |---------------------------------|---------------------------------|
A |---------------------------------|-5-------X---5-r-5-----\-3-------|
E |-3-------X---3-------0---3---0-3-|---------------------------------|
  1  &  2  &  3  &  4  &   1  &  2  &  3  &  4  &

G |---------------------------------|---------------------------------|---------------------------------|
D |---------------------------------|---------------------------------|---------------------------------|
A |---------------------------------|-3-----0-3-----0-3-r-3---3---0---|-3-----0-3---0-3-----3---2h3-2-0-|
E |-0-------X---0-----------0---0-3-|---------------------------------|---------------------------------|
  1  &  2  &  3  &  4  &   1  &  2  &  3  &  4  &   1  &  2  &  3  &  4  &


INTERLUDE:

G |---------------------------------|---------------------------------|
D |---------------------------------|---------------------------------|
A |-2-0-----------------------------|-5-------X---5-r-5-----\-3-------|
E |-----3-2-3-r-3-------0---3---0-3-|---------------------------------|
  1  &  2  &  3  &  4  &   1  &  2  &  3  &  4  &

G |---------------------------------|---------------------------------|
D |---------------------------------|---------------------------------|
A |---------------------------------|-3-------X---3-r-3h5-3---2h3-2-0-|
E |-0-------X---0-----------0---0-3-|---------------------------------|
  1  &  2  &  3  &  4  &   1  &  2  &  3  &  4  &

G |---------------------------------|---------------------------------|
D |---------------------------------|---------------------------------|
A |---------------------------------|-5-------X---5-r-5-----\-3-------|
E |-3-------X---3-------0---3---0-3-|---------------------------------|
  1  &  2  &  3  &  4  &   1  &  2  &  3  &  4  &

G |---------------------------------|---------------------------------|
D |---------------------------------|---------------------------------|
A |---------------------------------|-3-------------------------------|
E |-0-------X---0-----------0---0h3-|---------------------------------|
  1  &  2  &  3  &  4  &   1  &  2  &  3  &  4  &


OUTRO:

G |---------------------------------|---------------------------------|
D |---------------------------------|---------------------------------|
A |---------------------------------|-3---------------------------5h7-|
E |-3---------------------------3h5-|---------------------------------|
  1  &  2  &  3  &  4  &   1  &  2  &  3  &  4  &

                   (rit.)
G |---------------------------------|---------------------------------|---------------------------------|
D |-5-------------------------------|-------------------------5-------|---------------------------------|
A |-------------------------7--\5---|-3-------------------5h7---7-5-\-|---------------------------------|
E |---------------------------------|---------------------------------|-3-------------------------------|
  1  &  2  &  3  &  4  &   1  &  2  &  3  &  4  &   1  &  2  &  3  &  4  &

Almost there ...

Sign in to get your own page with links to favourite songs and more. You are just one click away...

Login with Facebook Login with Google