Search tabs and chords

Search for song, artist or band

Log in

One click and you are in

Login with Facebook Login with Google

Why sign up and log in

Guitar Tabs Explorer
Sixx:a.m. guitar tabs for Life is beautiful 2017

Solo tabs

Tuning: Standard (E chord diagramEE A chord diagramAA D chord diagramDD G chord diagramGG B chord diagramBB E chord diagramEE)

"LIFE IS BEAUTIFUL"
by Sixx:A chord diagramAA.M.

 Solo:

  02:14
e|----------------------------------------------17-----------------------------------------------------------|
B|---------15--17--18p17-hb---rbp15-17hbr-hb-------17hb-rbhb--rb-17qb~~~--15h17-hbr-15hb-13-15-fb--rp13-15~~\|
G|-----14----------------------------------------------------------------------------------------------------|
D|-----------------------------------------------------------------------------------------------------------|
A|-----------------------------------------------------------------------------------------------------------|
E|-16\-------------------------------------------------------------------------------------------------------|

e|-17hb---rb-17qbr~~-17--17-\15-15-\13-|
B|-------------------------------------|
G|-------------------------------------|
D|-------------------------------------|
A|-------------------------------------|
E|-------------------------------------|

e|-12h13p12h13p12h13p12h13-8h10p8h10p8h10p8h10/12h13p12h13p12h13p12h13p12-15\-/12-|
B|--------------------------------------------------------------------------------|
G|--------------------------------------------------------------------------------|
D|--------------------------------------------------------------------------------|
A|--------------------------------------------------------------------------------|
E|--------------------------------------------------------------------------------|

  02:37
e|-----------------------------------------------------------------|
B|-15~~---15--15-/17--17-/18--18\--11--11~~----18--18\--11--11~~---|
G|-----------------------------------------------------------------|
D|-----------------------------------------------------------------|
A|-----------------------------------------------------------------|
E|-----------------------------------------------------------------|

e|----------------------------------------------------------|
B|-18h20-18\---10--10~~---11p10p8-10--8--8--8h10p8h10p8--10-|
G|----------------------------------------------------------|
D|----------------------------------------------------------|
A|----------------------------------------------------------|
E|----------------------------------------------------------|

                                                       (hold bend & half-bend)
                                                                          v
e|--------13--13~~~------------13h15-13~~--13--13--15--15fb~~-15--15--15--hbr-15~~-15--15-\-|
B|-11\--/-----------11p10-11----------------------------------------------------------------|
G|------------------------------------------------------------------------------------------|
D|------------------------------------------------------------------------------------------|
A|------------------------------------------------------------------------------------------|
E|------------------------------------------------------------------------------------------|

  03:04
e|-6--8--10-8--10--12-10--12--13-12--13--15-13--15--17-15--17--18-17--18--20-17--18--20-| all notes in this
B|--------------------------------------------------------------------------------------| bar are played with
G|--------------------------------------------------------------------------------------| 6-8 notes per
D|--------------------------------------------------------------------------------------| indicated-note.
A|--------------------------------------------------------------------------------------| Listen to song for
E|--------------------------------------------------------------------------------------| timing between notes

e|-20fb---20fb~~--20fbr-------17-17--20--17--20fb--20-hb-fb-20fbrp17-------------17--17-|
B|---------------------18~~-\---------------------------------------20~~---20-20--------|
G|--------------------------------------------------------------------------------------|
D|--------------------------------------------------------------------------------------|
A|--------------------------------------------------------------------------------------|
E|--------------------------------------------------------------------------------------|

          (hold the bend)                                                            1.5-step bend    whammy
e|-17--17hb--17--17--17--17hb-17rb--------------15------15/17---17--17--17--17-17-17fb---brb-brb-brb--rb\12--|
B|---------------------------------18~~---18-18-----18-------------------------------------------------------|
G|-----------------------------------------------------------------------------------------------------------|
D|-----------------------------------------------------------------------------------------------------------|
A|-----------------------------------------------------------------------------------------------------------|
E|-----------------------------------------------------------------------------------------------------------|



************************************

| h    Hammer-on
| p    Pull-off
| r    Release
| b    Bend
| qb   Quarter-bend
| hb   Half-bend
| fb   Full-bend
| br   Bend release
| hbr  Half-bend then release
| /    Slide up
| \    Slide down
| ~    Vibrato

************************************

Almost there ...

Sign in to get your own page with links to favourite songs and more. You are just one click away...

Login with Facebook Login with Google