Log in

One click and you are in

Login with Facebook Login with Google

Why sign up and log in

Guitar Tabs Explorer
Troye Sivan bass tabs for Youth

Bass tabs with lyrics

What if, what if we run away? What if, what if we left today?
G|---------------------------------------------------------------------------|
D|---------------------------------------------------------------------------|
A|---------------------------------------------------------------------------|
E|---------3------------3-----3-----3----7-------------7-----7-----7---------|
What if, we say goodbye to safe and sound?
G|---------------------------------------------------------------------------|
D|---------------------------------------------------------------------------|
A|--------7-------------7----7----7--3--------3-----3-----3------------------|
E|---------------------------------------------------------------------------|


And what if, what if we re hard to find? What if, what if we lost our minds
G|---------------------------------------------------------------------------|
D|---------------------------------------------------------------------------|
A|---------------------------------------------------------------------------|
E|----- ----3---------------3------3------3-------7------------7-----7-----7|


What if, what if we fall behind, never found
G|---------------------------------------------------------------------------|
D|---------------------------------------------------------------------------|
A|--------7-------------7----7----7-----3--------3-----3-----3---------------|
E|---------------------------------------------------------------------------|



And when the lights start flashing like a photobooth
G|---------------------------------------------------------------------------|
D|---------------------------------------------------------------------------|
A|---------------------------------------------------------------------------|
E|-----------3-----------3-----3-----3----7-------------7-----7-----7--------|

And the stars exploding, we ll be fireproof
G|---------------------------------------------------------------------------|
D|---------------------------------------------------------------------------|
A|------7-------------7----7----7--3--------3-----3-----3--------------------|
E|---------------------------------------------------------------------------|




My youth, my youth is yours, Trippin' on skies, sippin' waterfalls
G|---------------------------------------------------------------------------|
D|---------------------------------------------------------------------------|
A|---------------------------------------------------------------------------|
E|3-3------------------------------------------------------------------------|


My youth, my youth is yours, Runaway now and forevermore
G|---------------------------------------------------------------------------|
D|---------------------------------------------------------------------------|
A|---------------------------------------------------------------------------|
E|3-3------------------------------------------------------------------------|


 My youth, my youth is yours, A truth so loud you can t ignore
G|---------------------------------------------------------------------------|
D|---------------------------------------------------------------------------|
A|---------------------------------------------------------------------------|
E|3-3-3-3-3-3-3-3-3-3-3-3-3-3-3-3--7-7-7-7-7-7-7-7-7-7-7-7-7-7-7-7-7-7-------|


   My youth ,  my youth , my youth, my youth is yours
G|---------------------------------------------------------------------------|
D|---------------------------------------------------------------------------|
A|7-7-7-7-7-7-7-7-7-7-7-7-7-7-7-7--3-----------------------------------------|
E|---------------------------------------------------------------------------|


*Interlude*
G|---------------------------------------------------------------------------|
D|---------------------------------------------------------------------------|
A|---------------------------------------------------------------------------|
E|3-3-3-3-3-3-3-3-3-3-3-3-3-3-3-3--7-7-7-7-7-7-7-7-7-7-7-7-7-7-7-7-7-7-------|


G|---------------------------------------------------------------------------|
D|---------------------------------------------------------------------------|
A|7-7-7-7-7-7-7-7-7-7-7-7-7-7-7-7--3-3-3-3-3-3-3-3-3-3-3-3-3-3-3-3-3-3-------|
E|---------------------------------------------------------------------------|




What if, what if we start to drive What if, what if we close our eyes
G|---------------------------------------------------------------------------|
D|---------------------------------------------------------------------------|
A|---------------------------------------------------------------------------|
E|---------3------------3-----3-----3--------7-------------7-----7-----7-----|


What if, we're speeding through red lights to paradise
G|---------------------------------------------------------------------------|
D|---------------------------------------------------------------------------|
A|-------------7-------------7----7----7-----------3--------3-----3-----3----|
E|---------------------------------------------------------------------------|


Cause we've no time for getting old Mortal bodies timeless souls
G|---------------------------------------------------------------------------|
D|---------------------------------------------------------------------------|
A|---------------------------------------------------------------------------|
E|-------------3------------3-----3-----3--7-------------7-----7-----7-------|


Cross your fingers, here we go         oh, oh, oh
G|---------------------------------------------------------------------------|
D|---------------------------------------------------------------------------|
A|----------7-------------7----7----7-----------3--------3-----3-----3-------|
E|---------------------------------------------------------------------------|



And when the lights start flashing like a photobooth
G|---------------------------------------------------------------------------|
D|---------------------------------------------------------------------------|
A|---------------------------------------------------------------------------|
E|-----------3-----------3-----3-----3----7-------------7-----7-----7--------|


And the stars exploding, we ll be fireproof
G|---------------------------------------------------------------------------|
D|---------------------------------------------------------------------------|
A|------7-------------7----7----7--3--------3-----3-----3--------------------|
E|---------------------------------------------------------------------------|




My youth, my youth is yours, Trippin' on skies, sippin' waterfalls
G|---------------------------------------------------------------------------|
D|---------------------------------------------------------------------------|
A|---------------------------------------------------------------------------|
E|3-3------------------------------------------------------------------------|


My youth, my youth is yours, Runaway now and forevermore
G|---------------------------------------------------------------------------|
D|---------------------------------------------------------------------------|
A|---------------------------------------------------------------------------|
E|3-3------------------------------------------------------------------------|


 My youth, my youth is yours, A truth so loud you can t ignore
G|---------------------------------------------------------------------------|
D|---------------------------------------------------------------------------|
A|---------------------------------------------------------------------------|
E|3-3-3-3-3-3-3-3-3-3-3-3-3-3-3-3--7-7-7-7-7-7-7-7-7-7-7-7-7-7-7-7-7-7-------|


   My youth ,  my youth , my youth, my youth is yours
G|---------------------------------------------------------------------------|
D|---------------------------------------------------------------------------|
A|7-7-7-7-7-7-7-7-7-7-7-7-7-7-7-7--3-----------------------------------------|
E|---------------------------------------------------------------------------|


*Interlude*
G|---------------------------------------------------------------------------|
D|---------------------------------------------------------------------------|
A|---------------------------------------------------------------------------|
E|3-3-3-3-3-3-3-3-3-3-3-3-3-3-3-3--7-7-7-7-7-7-7-7-7-7-7-7-7-7-7-7-7-7-------|


G|---------------------------------------------------------------------------|
D|---------------------------------------------------------------------------|
A|7-7-7-7-7-7-7-7-7-7-7-7-7-7-7-7--3-3-3-3-3-3-3-3-3-3-3-3-3-3-3-3-3-3-------|
E|---------------------------------------------------------------------------|


G|---------------------------------------------------------------------------|
D|---------------------------------------------------------------------------|
A|---------------------------------------------------------------------------|
E|3-3-3-3-3-3-3-3-3-3-3-3-3-3-3-3--7-7-7-7-7-7-7-7-7-7-7-7-7-7-7-7-7-7-------|


G|---------------------------------------------------------------------------|
D|---------------------------------------------------------------------------|
A|7-7-7-7-7-7-7-7-7-7-7-7-7-7-7-7--3-3-3-3-3-3-3-3-3-3-3-3-3-3-3-3-3-3-------|
E|---------------------------------------------------------------------------|



My youth, my youth is yours, Trippin' on skies, sippin' waterfalls
G|---------------------------------------------------------------------------|
D|---------------------------------------------------------------------------|
A|---------------------------------------------------------------------------|
E|---------------------------------------------------------------------------|


My youth, my youth is yours, Runaway now and forevermore
G|---------------------------------------------------------------------------|
D|---------------------------------------------------------------------------|
A|---------------------------------------------------------------------------|
E|---------------------------------------------------------------------------|


 My youth, my youth is yours, A truth so loud you can t ignore
G|---------------------------------------------------------------------------|
D|---------------------------------------------------------------------------|
A|---------------------------------------------------------------------------|
E|3-3-3-3-3-3-3-3-3-3-3-3-3-3-3-3--7-7-7-7-7-7-7-7-7-7-7-7-7-7-7-7-7-7-------|


   My youth ,  my youth , my youth, my youth is yours
G|---------------------------------------------------------------------------|
D|---------------------------------------------------------------------------|
A|7-7-7-7-7-7-7-7-7-7-7-7-7-7-7-7--3-----------------------------------------|
E|---------------------------------------------------------------------------|


*Interlude*
G|---------------------------------------------------------------------------|
D|---------------------------------------------------------------------------|
A|---------------------------------------------------------------------------|
E|3-3-3-3-3-3-3-3-3-3-3-3-3-3-3-3--7-7-7-7-7-7-7-7-7-7-7-7-7-7-7-7-7-7-------|


G|---------------------------------------------------------------------------|
D|---------------------------------------------------------------------------|
A|7-7-7-7-7-7-7-7-7-7-7-7-7-7-7-7--3-3-3-3-3-3-3-3-3-3-3-3-3-3-3-3-3-3-------|
E|---------------------------------------------------------------------------|


G|---------------------------------------------------------------------------|
D|---------------------------------------------------------------------------|
A|---------------------------------------------------------------------------|
E|3-3-3-3-3-3-3-3-3-3-3-3-3-3-3-3--7-7-7-7-7-7-7-7-7-7-7-7-7-7-7-7-7-7-------|


G|---------------------------------------------------------------------------|
D|---------------------------------------------------------------------------|
A|7-7-7-7-7-7-7-7-7-7-7-7-7-7-7-7--3-3-3-3-3-3-3-3-3-3-3-3-3-3-3-3-3-3-------|
E|---------------------------------------------------------------------------|

Almost there ...

Sign in to get your own page with links to favourite songs and more. You are just one click away...

Login with Facebook Login with Google