Log in

One click and you are in

Login with Facebook Login with Google

Why sign up and log in

Guitar Tabs Explorer
Sir Chloe bass tabs for Animal

Bass tabs

Sir Chloe - Animal


(0.18)
G-----------------------------------------------------------------------------|
D-----------------------------------------------------------------------------|
A----22222222-55555555-22222222-55555555--------------------------------------|
E----------------------------------------55555555-3333333333333333------------|

(0.40)
G-----------------------------------------------------------------------------|
D-----------------------------------------------------------------------------|
A----7--5--3--3h5-------------------------------------------------------------|
E------------3------(2x)------------------------------------------------------|

(0.51)
G-----------------------------------------------------------------------------|
D-----------------------------------------------------------------------------|
A-------44-55442r-------------------------------------------------------------|
E----55---------------(2x)----------------------------------------------------|


(1.03)
G-----------------------------------------------------------------------------|
D-----------------------------------------------------------------------------|
A---22222222-55555555-22222222-55555555---------------------------------------|
E---------------------------------------55555555-3333333333333333-------------|

(1.24) no bass
G-----------------------------------------------------------------------------|
D-----------------------------------------------------------------------------|
A-----------------------------------------------------------------------------|
E-----------------------------------------------------------------------------|

(1.34)
G-----------------------------------------------------------------------------|
D-----------------------------------------------------------------------------|
A-------44-55442r-------------------------------------------------------------|
E----55---------------(2x)----------------------------------------------------|

(1.46) (one variation)
G-----------------------------------------------------------------------------|
D------5-----5----------------------------------------------------------------|
A----7--7--5--5--3--35--------------------------------------------------------|
E------------------3-----------(4x)-------------------------------------------|

(2.09)
G-----------------------------------------------------------------------------|
D-----------------------------------------------------------------------------|
A----7--5--3------------------------------------------------------------------|
E-----------------------------------------------------------------------------|

Almost there ...

Sign in to get your own page with links to favourite songs and more. You are just one click away...

Login with Facebook Login with Google