Log in

One click and you are in

Login with Facebook Login with Google

Why sign up and log in

Guitar Tabs Explorer
Arijit Singh guitar tabs for Tera yaar hoon main sonu ke titu ki sweety

Tera Yaar Hoon Main Sonu Ke Titu Ki Sweety tab by Arijit Singh

Arijit Singh guitar tabs for Tera yaar hoon main sonu ke titu ki sweety

Guitar tabs

Intro:
Tu jo rootha toh kaun hansega
e|--------3------------------------------------------------------------------|
B|-----5-----6--------3------------------------------------------------------|
G|--5-----------5--5-----5--3--5---------------------------------------------|
D|---------------------------------------------------------------------------|
A|---------------------------------------------------------------------------|
E|---------------------------------------------------------------------------|
Tu jo chhoota toh kaun rahega
e|--------3------------------------------------------------------------------|
B|-----5-----6--------3--------3---------------------------------------------|
G|--5-----------5--5-----5--3------------------------------------------------|
D|---------------------------------------------------------------------------|
A|---------------------------------------------------------------------------|
E|---------------------------------------------------------------------------|


Tu chup hai toh yeh darr lagta hai
e|--------3------------------------------------------------------------------|
B|-----5-----6--------3------------------------------------------------------|
G|--5-----------5--5-----5--3--5---------------------------------------------|
D|---------------------------------------------------------------------------|
A|---------------------------------------------------------------------------|
E|---------------------------------------------------------------------------|


Apna mujhko ko ab kaun kahega
e|--------3------------------------------------------------------------------|
B|-----5-----6--------3--------3---------------------------------------------|
G|--5-----------5--5-----5--3------------------------------------------------|
D|---------------------------------------------------------------------------|
A|---------------------------------------------------------------------------|
E|---------------------------------------------------------------------------|


Verse:
Tu hi wajah…..Tere bina
e|---------------------------------------------------------------------------|
B|--3--5--6--5--6--5--3--3--5--6--5------------------------------------------|
G|---------------------------------------------------------------------------|
D|---------------------------------------------------------------------------|
A|---------------------------------------------------------------------------|
E|---------------------------------------------------------------------------|


bewajah bekar hoon main
e|-----3--3--3--5--3-------6-6-----------------------------------------------|
B|--5-----------------6-6----------------------------------------------------|
G|---------------------------------------------------------------------------|
D|---------------------------------------------------------------------------|
A|---------------------------------------------------------------------------|
E|---------------------------------------------------------------------------|


Chorus:
Tera yaar hoon main
e|--6--6--5--------3---------------------------------------------------------|
B|-----------6--6-----6------------------------------------------------------|
G|---------------------------------------------------------------------------|
D|---------------------------------------------------------------------------|
A|---------------------------------------------------------------------------|
E|---------------------------------------------------------------------------|


Tera yaar hoon main
e|--6--6--5--------3---------------------------------------------------------|
B|-----------6--6-----6------------------------------------------------------|
G|---------------------------------------------------------------------------|
D|---------------------------------------------------------------------------|
A|---------------------------------------------------------------------------|
E|---------------------------------------------------------------------------|

↓ Add and view comments below ↓

What do you think about this song and these tabs?

Add your comments, questions, rant or a thumbs up below.

Almost there ...

Sign in to get your own page with links to favourite songs and more. You are just one click away...

Login with Facebook Login with Google