Search tabs and chords

Search for song, artist or band

Log in

One click and you are in

Login with Facebook Login with Google

Why sign up and log in

Guitar Tabs Explorer
Sinead Burgess guitar tabs for Ramblin man

Guitar tabs with lyrics

Tuning: Double Drop-D

Difficulty: Novice

Chords Used

    A chord diagramDsus2Dsus2   F*    G*   A chord diagramA7sus4A7sus4
d|----0-----0-----0------0----------|
B|----3-----3-----4------3----------|
G|----2-----2-----3-----------------|
D|-----------------------2----------|
A|----------------------------------|
D|----------2-----3-----------------|
RIFF: (basic pattern, combine w/ strumming)
d|----------------------------|---------------------------|
B|--3------3--------3---------|--3------3--------3--------|
G|--2------2--------2---------|--2------2--------2--------|
D|-------0--------0----3---2--|-------0--------0----------|
A|----0h3------0h3------------|----0h3------0h3-----2--3--|
D|----------------------------|---------------------------|

d|----------------------------|-----------------------------------|
B|--3------3--------3---------|--3------3--------3-------------3--|
G|--2------2--------2---------|--2------2--------2-------------2--|
D|-------0--------0----3---2--|-------0--------0------------------|
A|----0h3------0h3------------|----0h3------0h3-----3--2b-p0------|
D|----------------------------|-----------------------------3b----|


INTRO:
RIFF


VERSE:
                                                        d|-------------|
                                                        B|-----3-----3-|
                                                        G|-----2-----2-|
                                                        D|-------------|
                                                        A|---3-----2---|
A chord diagramDsus2Dsus2                                                   D|-------------|
Born a wise-crack rebel heart, brought up shaking down the boulevard
                                     G*
Momma said, take no shit, but do no harm
                                                 d|--------------------|
                                                 B|--------3--------3--|
                                                 G|--------2--------2--|
                                                 D|------0--------0----|
                                                 A|---0h3------0h3-----|
A chord diagramDsus2Dsus2      A chord diagramA7sus4A7sus4                     A chord diagramDsus2Dsus2      D|--------------------|
No child of mine is just a girl on his arm

CHORUS:

  d|--------------------|
  B|----3------------3--|
  G|----2------------2--|
  D|--------------------|
  A|--3------------2----|
  D|--------------------|   A chord diagramDsus2Dsus2
So my, wheels keep turning, can’t sit still

d|--------------------                    d|-----------|
B|----3------------3--                    B|--------3--|
G|----2------------2--                    G|--------2--|
D|--------------------                    D|------0----|
A|--3------------2----                    A|---0h3-----|
D|--------------------        A chord diagramDsus2Dsus2       D|-----------|
     I came out swinging and I always will

d|-----------------|
B|----3---------3--|
G|----2---------2--|
D|-----------------|
A|--3---------2----|
D|-----------------|  A chord diagramDsus2Dsus2        G*
     Still a lady but no one understands

                 F*           A chord diagramDsus2Dsus2     RIFF (bar 4)     RIFF (bar 1)
My mama raised a ramblin’ man


VERSE:
                                                    d|-----------------|
                                                    B|-----3---------3-|
                                                    G|-----2---------2-|
                                                    D|-----------------|
                                                    A|---3---------2---|
A chord diagramDsus2Dsus2                                               D|-----------------|
No holy water to save me now, livin’ free planted this girl deep down
                                         G*
Rolling like a stone is still the only way

                                            d|--------------------|
                                            B|--------3--------3--|
                                            G|--------2--------2--|
                                            D|------0--------0----|
                                            A|---0h3------0h3-----|
A chord diagramDsus2Dsus2          A chord diagramA7sus4A7sus4            A chord diagramDsus2Dsus2      D|--------------------|
You can try keep up but I cannot change


CHORUS:

  d|--------------------|
  B|----3------------3--|
  G|----2------------2--|
  D|--------------------|
  A|--3------------2----|
  D|--------------------|   A chord diagramDsus2Dsus2
So my, wheels keep turning, can’t sit still

d|--------------------                    d|-----------|
B|----3------------3--                    B|--------3--|
G|----2------------2--                    G|--------2--|
D|--------------------                    D|------0----|
A|--3------------2----                    A|---0h3-----|
D|--------------------        A chord diagramDsus2Dsus2       D|-----------|
     I came out swinging and I always will

d|-----------------|
B|----3---------3--|
G|----2---------2--|
D|-----------------|
A|--3---------2----|
D|-----------------|  A chord diagramDsus2Dsus2        G*
     Still a lady but no one understands

                                         d|---------|
                                         B|---------|
                                         G|---------|
                                         D|------0--|
                                         A|---0h3---|
                 F*           A chord diagramDsus2Dsus2      D|---------|
My mama raised a ramblin’ man


INSTRUMENTAL:

                          d|---------|
                          B|---------|
                          G|---------|
                          D|------0--|
                          A|---0h3---|
G*      F*     A chord diagramDsus2Dsus2      D|---------|


                                d|-------------|
                                B|----3-----3--|
                                G|----2-----2--|
                                D|-------------|
                                A|--3-----2----|
G*      F*     A chord diagramDsus2Dsus2 - G*       D|-------------|

                                              d|---------|
                                              B|---------|
                                              G|---------|
                                              D|------0--|
                                              A|---0h3---|
A chord diagramDsus2Dsus2        G*         F*         A chord diagramDsus2Dsus2      D|---------|


CHORUS:

     d|-------------------|
     B|----3------------3-|
     G|----2------------2-|
     D|-------------------|
     A|--3-------------2--|
     D|-------------------|   A chord diagramDsus2Dsus2
‘cause my wheels keep turning, can’t sit still

d|--------------------                    d|-----------|
B|----3------------3--                    B|--------3--|
G|----2------------2--                    G|--------2--|
D|--------------------                    D|------0----|
A|--3------------2----                    A|---0h3-----|
D|--------------------        A chord diagramDsus2Dsus2       D|-----------|
     I came out swinging and I always will

d|-----------------|
B|----3---------3--|
G|----2---------2--|
D|-----------------|
A|--3---------2----|
D|-----------------|  A chord diagramDsus2Dsus2        G*
     Still a lady but no one understands

                                         d|---------|
                                         B|---------|
                                         G|---------|
                                         D|------0--|
                                         A|---0h3---|
                 F*           A chord diagramDsus2Dsus2      D|---------|
My mama raised a ramblin’ man

                                         d|---------|
                                         B|---------|
                                         G|---------|
                                         D|------0--|
                                         A|---0h3---|
    G*           F*           A chord diagramDsus2Dsus2      D|---------|
My mama raised a ramblin’ man






d|----------------------------|
B|-----3----------------------|
G|-----2----------------------|
D|----------------------------|
A|--3--------------2--2h3p2---|
D|-------------------------3--|   A chord diagramDsus2Dsus2    RIFF (bar 4)   End on A chord diagramDsus2Dsus2 Upstroke Rake
My mama raised a ramblin’         man

Almost there ...

Sign in to get your own page with links to favourite songs and more. You are just one click away...

Login with Facebook Login with Google