Log in

One click and you are in

Login with Facebook Login with Google

Why sign up and log in

Guitar Tabs Explorer
Frank Sinatra bass tabs for Thats life

Bass tabs

frank_sinatra_thats_life.btab

Basstab by Jan Bjorklund, Finland <jani_bjorklund@yahoo.se>
You are welcome to request for basstabs!
Bienvenidos a pedirme transcripciones para el bajo!
Fingering and positions as suggested by TablEdit.

TablEdited by Jan Bjorklund for Benjamin

Tuning : E A D G 	Time Signature: 4/4

 |       |       |       |        |       |       |       |
|--------------------------------|--------------------------------|
|2-----------------------0---0---|--------------------------------|
|--------------------------------|4-------------------------------|
|--------------------------------|--------------------------------|

 |       |       |       |        |       |       |       |
|--------------------------------|--------------------------------|
|--------------------------------|------------------------0-------|
|2-------1-------0---------------|0-------------------------------|
|--------------------------------|--------------------------------|

 |       |       |       |        |       |       |       |
|--------------------------------|--------------------------------|
|--------------------------------|--------------------------------|
|--------------------------------|2-------------------------------|
|3-----------------------3-------|------------------------2-------|

 |       |       |       |        |       |       |       |
|--------------------------------|--------------------------------|
|--------------------------------|--------------------------------|
|--------------------------------|0-----------------------3-------|
|0-------------------------------|--------------------------------|

 |       |       |       |        |       |       |       |
|--------------------------------|--------------------------------|
|0-------------------------------|--------------------------------|
|----------------3-------2-------|--------------------------------|
|--------------------------------|0-------------------------------|

 |       |       |       |        |       |       |       |
|--------------------------------|--------------------------------|
|--------------------------------|------------------------0-------|
|0-------------------------------|0-------------------------------|
|--------------------------------|--------------------------------|

 |       |       |       |        |       |       |       |
|--------------------------------|--------------------------------|
|--------------------------------|--------------------------------|
|--------------------------------|2-------------------------------|
|3-----------------------3-------|----------------------------2---|

 |       |       |       |        |       |       |       |
|--------------------------------|--------------------------------|
|--------------------------------|--------------------------------|
|------------------------1-------|0-------------------------------|
|0-------------------------------|--------------------------------|

 |       |       |       |        |       |       |       |
|--------------------------------|--------------------------------|
|0-------------------------------|--------------------------------|
|--------------------------------|--------------------------------|
|----------------2-------1-------|0-------------------------------|

 |       |       |       |        |       |       |       |
|--------------------------------|--------------------------------|
|------------0-----------0-------|--------------------------------|
|0---0---------------------------|--------------------------------|
|--------------------------------|3-------4---3-------------------|

 |       |       |       |        |       |       |       |
|--------------------------------|--------------------------------|
|--------------------------------|--------------------0-----------|
|--------------------------------|--------------------------------|
|3-------------------------------|3-----------3-----------3-------|

 |       |       |       |        |       |       |       |
|--------------------------------|--------------------------------|
|--------------------------------|--------------------------------|
|3-------------------------------|3-----------------------1-------|
|--------------------------------|--------------------------------|

 |       |       |       |        |       |       |       |
|--------------------------------|--------------------------------|
|--------------------------------|--------------------------------|
|0-------------------------------|0---------------------2-3-----4-|
|--------------------------------|--------------------------------|

 |       |       |       |        |       |       |       |
|--------------------------------|--------------------------------|
|0-------------------------------|0-----------------------0-------|
|--------------------------------|--------------------------------|
|--------------------------------|--------------------------------|

 |       |       |       |        |       |       |       |
|--------------------------------|--------------------------------|
|--------------------------------|--------------------------------|
|--------------------------------|2-------------------------------|
|3-----------------------3-------|----------------------------2---|

 |       |       |       |        |       |       |       |
|--------------------------------|--------------------------------|
|--------------------------------|--------------------------------|
|--------------------------------|0---------------4-------3-------|
|0-------------------------------|--------------------------------|

 |       |       |       |        |       |       |       |
|--------------------------------|--------------------------------|
|--------------------------------|--------------------------------|
|------------------------2-------|--------------------------------|
|3---------------2---------------|0-------------------------------|

 |       |       |       |        |       |       |       |
|--------------------------------|----------------2---------------|
|----------------------------0---|--------------------------------|
|0-------------------------------|--------------------------------|
|--------------------------------|3-------------------------------|

 |       |       |       |        |       |       |       |
|--------------------------------|--------------------------------|
|------------------------0-------|--------------------------------|
|0-------------------------------|--------------------------------|
|--------------------------------|3-----------------------3-------|

 |       |       |       |        |       |       |       |
|--------------------------------|--------------------------------|
|--------------------------------|--------------------------------|
|2-------------------------------|----------------------------1---|
|------------------------2-------|0-------------------------------|

 |       |       |       |        |       |       |       |
|--------------------------------|--------------------------------|
|--------------------------------|0-------------------------------|
|0-----------------------3-------|----------------3-------2-------|
|--------------------------------|--------------------------------|

 |       |       |       |        |       |       |       |
|--------------------------------|--------------------------------|
|--------------------------------|--------------------------------|
|--------------------------------|0-------------------------------|
|0-------------------------------|--------------------------------|

 |       |       |       |        |       |       |       |
|--------------------------------|--------------------------------|
|------------------------0-------|--------------------------------|
|0-------------------------------|--------------------------------|
|--------------------------------|3-----------------------3-------|

 |       |       |       |        |       |       |       |
|--------------------------------|--------------------------------|
|--------------------------------|--------------------------------|
|2-------------------------------|------------------------1-------|
|----------------------------2---|0-------------------------------|

 |       |       |       |        |       |       |       |
|--------------------------------|--------------------------------|
|--------------------------------|0-------------------------------|
|0-------------------------------|--------------------------------|
|--------------------------------|----------------2-------1-------|

 |       |       |       |        |       |       |       |
|--------------------------------|--------------------------------|
|--------------------------------|------------0-----------0-------|
|--------------------------------|0---0---------------------------|
|0-------------------------------|--------------------------------|

 |       |       |       |        |       |       |       |
|--------------------------------|--------------------------------|
|--------------------------------|--------------------------------|
|--------------------------------|--------------------------------|
|3-------4---3-------------------|3-------------------------------|

 |       |       |       |        |       |       |       |
|--------------------------------|--------------------------------|
|--------------------0-----------|--------------------------------|
|--------------------------------|3-------------------------------|
|3-----------3-----------3-------|--------------------------------|

 |       |       |       |        |       |       |       |
|--------------------------------|--------------------------------|
|--------------------------------|--------------------------------|
|3-----------------------1-------|0-------------------------------|
|--------------------------------|--------------------------------|

 |       |       |       |        |       |       |       |
|--------------------------------|--------------------------------|
|--------------------------------|0-------------------------------|
|0---------------------2-3-----4-|--------------------------------|
|--------------------------------|--------------------------------|

 |       |       |       |        |       |       |       |
|--------------------------------|--------------------------------|
|0-----------------------0-------|--------------------------------|
|--------------------------------|--------------------------------|
|--------------------------------|3-----------------------3-------|

 |       |       |       |        |       |       |       |
|--------------------------------|--------------------------------|
|--------------------------------|--------------------------------|
|2-------------------------------|--------------------------------|
|----------------------------2---|0-------------------------------|

 |       |       |       |        |       |       |       |
|--------------------------------|--------------------------------|
|--------------------------------|--------------------------------|
|0---------------4-------3-------|------------------------2-------|
|--------------------------------|3---------------2---------------|

 |       |       |       |        |       |       |       |
|--------------------------------|--------------------------------|
|--------------------------------|----------------------------0---|
|--------------------------------|0-------------------------------|
|0-------------------------------|--------------------------------|

 |       |       |       |        |       |       |       |
|--------------------------------|--------------------------------|
|----------------2---------------|0-------------------------------|
|------------3-------------------|--------------------------------|
|3-------------------------------|----3---------------------------|

Other versions of That's Life

That's life jazzierBass tabs

Almost there ...

Sign in to get your own page with links to favourite songs and more. You are just one click away...

Login with Facebook Login with Google