Log in

One click and you are in

Login with Facebook Login with Google

Why sign up and log in

Guitar Tabs Explorer
Frank Sinatra guitar chords for Slightly out of tune

Slightly Out Of Tune chords by Frank Sinatra

Frank Sinatra guitar chords for Slightly out of tune

Guitar chords with lyrics

Tuning: Standard (E A D G B E)

Key: A chord diagramFF

Difficulty: Advanced
Intro:
A chord diagramE minorEm                             A chord diagramGm7Gm7      A chord diagramGb7Gb7
When I try to sing you say I'm off key.
A chord diagramFF                               A chord diagramC minorCm        A chord diagramC majorC  A chord diagramB7B7
Why can't you see how much this hurts me?
A chord diagramD7D7                A chord diagramGbm7Gbm7            A chord diagramGm7Gm7        A chord diagramA7A7
With your perfect beauty and your perfect pitch,
A chord diagramDm7Dm7              A chord diagramE7E7
You're a perfect terror,
A7M               A chord diagramAb7Ab7       G7M            A chord diagramGb7Gb7
When I come around must you always put me down?


Verse 1:
F7M                          G7(b5)
If you say my singing is off key, my love.
A chord diagramGm7Gm7               A chord diagramC9C9                 Am7-5   D(b9)
You will hurt my feelings, don't you see, my love?
A chord diagramGm7Gm7             A7(b9)            D(#9)             D(b9)
I wish I had an ear like yours, a voice that would behave.
A chord diagramG7G7                            Gb7M      Gb7(b5)
All I have is feeling and the voice God gave.


Verse 2:
F7M                        G7(b5)
You insist my music goes against the rules.
A chord diagramGm7Gm7                 A chord diagramC9C9              Am7-5    D(b9)
Yes, but rules were never made for lovesick fools.
    A chord diagramGm7Gm7              A7(#5)          A chord diagramDm7Dm7         A chord diagramE7E7
I wrote this little song for you, but you don't care.

Bridge:
A7M                   A7(#5)       A chord diagramG13G13      A chord diagramGb7Gb7
Its a crooked song, ah, but all my heart is there.
A7M               A chord diagramA# diminished A#dim         A chord diagramBm11Bm11             A chord diagramE7E7
The thing that you would see if you would do your part
    A7M            A chord diagramAm9Am9         A chord diagramBm11Bm11          Bb7(b5)
Is, even if I'm out of tune, I have a gentle heart.
  C7M              A chord diagramC#dimC#dim     A chord diagramDm7Dm7          A chord diagramG13G13
I took your picture with my trusty Rolleiflex,
    A chord diagramGm7Gm7       A chord diagramEbm6Ebm6    A chord diagramAb9Ab9       A chord diagramGm7Gm7   C(b9)
And now all I have developed is a complex.


Verse 3:
 F7M                          G7(b5)
Possibly in vain, I hope you weaken, oh my love,
    A chord diagramGm7Gm7             A chord diagramC7C7            Am7-5          D(b9)
And forget those rigid rules that undermine my dream of
   Bb7M           A chord diagramBbm6Bbm6           A chord diagramAm7Am7           A chord diagramAbdimAbdim
A chord diagramA majorA life of love and music with someone who'll understand
  A chord diagramG7G7
That even though I may be out of tune,
         Gb7M
When I attempt to say how much I love you,
         A chord diagramG7G7                       A chord diagramGm7Gm7
All that matters is the message that I bring,
A chord diagramC7C7           F7M                 A chord diagramCm7Cm7   F7M   A chord diagramCm7Cm7    F7M
Which is my dear one, I love you.

----------------------------------------------------
Chords:

     A chord diagramE minorEm      A chord diagramGm7Gm7     A chord diagramGb7Gb7     A chord diagramFF       A chord diagramCm7Cm7     A chord diagramC majorC
e|---0-----------------------1-------3-------3-------|
B|---0-------3-------2-------1-------4-------5-------|
G|---0-------3-------3-------2-------3-------5-------|
D|---2-------3-------2-------3-------5-------5-------|
A|---2-----------------------3-------3-------3-------|
E|---0-------3-------2-------1-------3-------3-------|


      A chord diagramB7B7      A chord diagramD7D7      A chord diagramGbm7Gbm7    A chord diagramA7A7      A chord diagramDm7Dm7     A chord diagramE7E7
e|----2-------5-----------------------5---------------|
B|----4-------7-------2-------5-------6-------5-------|
G|----2-------5-------2-------6-------5-------7-------|
D|----4-------7-------2-------5-------7-------6-------|
A|----2-------5-----------------------5-------7-------|
E|----2-------5-------2-------5-------5---------------|


      A7M     A chord diagramAb7Ab7     G7M
e|---------------------------||
B|----5-------4-------3------||
G|----6-------5-------4------||
D|----6-------4-------4------||
A|---------------------------||
E|----5-------4-------3------||


     F7M     G7(b5)  A chord diagramC9C9      Am7-5   D(b9)
e|------------------------------------------|
B|---1-------2-------3-------4-------4------|
G|---2-------4-------3-------5-------5------|
D|---2-------3-------2-------5-------4------|
A|-------------------3---------------5------|
E|---1-------3---------------5--------------|


     A(b9)    D(#9)   A chord diagramG7G7      Gb7M    Gb7(b5)
e|-------------------------------------------|
B|----5-------5-------3-------2-------1------|
G|----3-------6-------4-------3-------3------|
D|----5-------4-------3-------3-------2------|
A|----4--------------------------------------|
E|------------5-------3-------2-------2------|


      A7(#5)  A chord diagramG13G13     A chord diagramA# diminished A#dim   A chord diagramBm11Bm11    A chord diagramAm9Am9
e|------------------------------------5------|
B|----6-------5-------5-------7-------5------|
G|----6-------4-------6-------7-------5------|
D|----5-------3-------5-------7-------5------|
A|------------------------------------7------|
E|----5-------3-------6-------7-------7------|


     Bb7(b5)  C7M     A chord diagramC#dimC#dim
e|--------------------8-------|
B|----5-------8-------10------|
G|----7-------9-------9-------|
D|----6-------9-------8-------|
A|--------------------8-------|
E|----6-------8-------9-------|


     A chord diagramEbm6Ebm6     A chord diagramAb9Ab9     C(b9)
e|----------------------------|
B|----6-------4-------2-------|
G|----5-------5-------3-------|
D|----4-------4-------2-------|
A|----6-------6-------3-------|
E|----4-------4---------------|


      A chord diagramC7C7      Bb7M    A chord diagramBbm6Bbm6    A chord diagramAm7Am7
e|-----------------------------------|
B|----5-------6-------6-------5------|
G|----3-------7-------6-------5------|
D|----5-------7-------5-------5------|
A|----3------------------------------|
E|------------6-------6-------5------|


      A chord diagramAbdimAbdim   A chord diagramF6F6      A chord diagramF11F11
e|----------------------------||
B|----3-------1-------0-------||
G|----4-------2-------2-------||
D|----3-------0-------2-------||
A|----------------------------||
E|----4-------1-------1-------||

Almost there ...

Sign in to get your own page with links to favourite songs and more. You are just one click away...

Login with Facebook Login with Google